Jason Mraz - Clock Watching Text Guitar Tab

Learn the song with the online tablature player
Clockwatching - Jason Mraz

INTRO
I suggest using the C chord form)
                x4
e|--------------------------'----------------------------------------------|
B|--------1---------------3-'--------3---------------1---------------------|
G|-----0-----0---------0----'-----0-----0---------0------------------------|
D|--2-----------2---4-------'--4-----------4---2---------------------------|
A|--------------------------'----------------------------------------------|
E|--------------------------'----------------------------------------------|

VERSE 1                                                              x1
e|-------0--------------0-------------------------3------------------------|
B|----------1--------------1--------3--------------------------------------|
G|----0--------0-----0-----------0-----0-------0---------------------------|
D|-2--------------4-----------4-----------0h2------------------------------|
A|-------------------------------------------------------------------------|
E|-------------------------------------------------------------------------|

INTRO. repeat with some 0h2 at the ends.      x2

Verse 2                                                              x2
e|-------0--------------0--------------------------------------------------|
B|----------1--------------1--------3-------------1------------------------|
G|----0--------0-----0-----------0-----0-------0-----0---------------------|
D|-2--------------4-----------4-----------0h2------------------------------|
A|-------------------------------------------------------------------------|
E|-------------------------------------------------------------------------|
                             figure out strumming                       x1
e|-------0------------------3--'-------------------------------------------|
B|----------1--------3------3--'-------------3-----------------------------|
G|----0-----------0-----0---4--'------------------------x4-----------------|
D|-2-----------4------------5--'--------4h5--------------------------------|
A|--------------------------5--'-------------------------------------------|
E|--------------------------3--'-------------------------------------------|

CHORUS         figure out strumming (use thumb on E string 7 fret)       x2
e|-3----0-----x------------------------------------------------------------|
B|-3----3-----7------------------------------------------------------------|
G|-4----0-----7------------------------------------------------------------|
D|-5----4-----7------------------------------------------------------------|
A|-5----5-----x------------------------------------------------------------|
E|-3----0-----7------------------------------------------------------------|
                                                              x4
                 pick one   (only from 688766 and forward, no G on 4th time)
e|-3----0----x--'--6-------------------------0----3------------------------|
B|-3----3----7--'--6------3------------------1----3------------------------|
G|-4----0----7--'--7--or--3-------and--------0----0------------------------|
D|-5----4----7--'--8------3------------------2----0------------------------|
A|-5----5----x--'--8------1------------------3----2------------------------|
E|-3----0----7--'--6------------------------------3------------------------|

INTRO. repeat but with no stops, smooth all through. add 0h2 at ends.  x2

VERSE 2. same as before

CHORUS. same as before

INTRO.   x2

VERSE 2. x4  with another guitar as chord progression  C  to  054030 to G to C

OUTRO     figure out strumming                             x2
e|--0----0----3----0-------------------------------------------------------|
B|--1----3----3----1-------------------------------------------------------|
G|--0----0----4----0-------------------------------------------------------|
D|--2----4----5----2-------------------------------------------------------|
A|--3----5----5----3-------------------------------------------------------|
E|--0----0----3----0-------------------------------------------------------|

| /  slide up
|   slide down
| h  hammer-on
| p  pull-off
| ~  vibrato
| +  harmonic
| x  Mute note