Jason Mraz - Too Much Food Text Guitar Tab

Learn the song with the online tablature player
e)--------------------------------------------|  x3
B)--11---------9-10--10-10-10-14-14-14-14-14--|
G)-----11-11-9--------------------------------|
D)--------------------------------------------|
A)--------------------------------------------|
E)--------------------------------------------|

   Then

e)--------------------------------------------| x1
B)--11---------9-10 --------------------------|
G)-----11-11-9--------------------------------|
D)--------------------------------------------|
A)--------------------------------------------|
E)--------------------------------------------|