Jason Mraz - You Fuckin Did It Text Guitar Tab

Learn song with the online tabulature player
Attempting to figure this song out by ear and playing it all the way to the end is
a victory in itself and it feels fckn awesome. Enjoy!
Here is a link to the song for strumming purposes... tricky stuff...
http://www.youtube.com/watch?v=grK2IrVKylY

Standard tuning, no capo
INTRO
e|---------------------------------------------------------------------------|
B|---------------------------------------------------------------------------|
G|---------------------------------------------------------------------------|
D|---------------------------------------------------------------------------|
A|-------------------------------10-10-10-10--10-10-10-10-10--10-10-10-10-10-|
E|-7-7-7-7--7-7-7-7-7--7-7-7-7-----------------------------------------------|

A|-9-9-9-9--9-9-9-9-9--9-9-9-9-9-----------------------|
E|-------------------------------7-7-7-7--7-7-7-7-7-7--| X2

TRANSITION INTO CHORDS!! (you can play the chords however you feel is right)
Verses and chorus.
e|-------x-7-7-7-7--7-7-7-7-7--7-7-7-7--10--10-10-10-10-10-10-10-10-10-|
B|-------x-7-7-7-7--7-7-7-7-7--7-7-7-7--12--12-12-12-12-12-12-12-12-12-|
G|-------x-7-7-7-7--7-7-7-7-7--7-7-7-7--10--10-10-10-10-10-10-10-10-10-|
D|-------x-7-7-7-7--7-7-7-7-7--7-7-7-7--12--12-12-12-12-12-12-12-12-12-|
A|-------x-9-9-9-9--9-9-9-9-9--9-9-9-9--10--10-10-10-10-10-10-10-10-10-|
E|-5-6-7-x-7-7-7-7--7-7-7-7-7--7-7-7-7--x---x--x--x--x--x--x--x--x--x--|

e|-----9--9--9--9--9---9--9--9--9--9---9--9--9--9------7--7-7-7-7-7--------|
B|-----10-10-10-10-10--10-10-10-10-10--10-10-10-10-----7--7-7-7-7-7--------|
G|-----9--9--9--9--9---9--9--9--9--9---9--9--9--9------7--7-7-7-7-7--------|
D|-----11-11-11-11-11--11-11-11-11-11--11-11-11-11-----7--7-7-7-7-7--------|
A|-7/9-9--9--9--9--9---9--9--9--9--9---9--9--9--9------9--9-9-9-9-9--------|
E|-----x--x--x--x--x---x--x--x--x--x---x--x--x--x--5/7-7--7-7-7-7-7--7-7/0-|

BRIDGE TO CHORUS
pretty much the same thing as the verse but ending in
e|-3~----2--2-2-2-2-22-2-2-2-2-22--|
B|-3~----2--2-2-2-2-22-2-2-2-2-22--|
G|-4~----3--3-3-3-3-33-3-3-3-3-33--|
D|-5~----4--4-4-4-4-44-4-4-4-4-44--|
A|-5~----4--4-4-4-4-44-4-4-4-4-44--|
E|-3~----2--2-2-2-2-22-2-2-2-2-22--|
instead of the Bm7 and the slidey
Then it goes right back into the verse chords :)

Have fun!

ps. I still plan on updating this for more accurate chord progressions because i know 
that Mraz plays a lot throughout the song. This is just the basic skeleton for now for 
easy improv rhythm and just singing it out!