Javier - If I Never Get To Heaven Text Guitar Tab

Learn song with the online tabulature player
Javier - If I Never Get To Heaven (INTRO)

Standard tuning 

E|--------3--------------------3-------------------------------------------|
B|--1-----------1------------------1-------------0h1---------------1-------|
G|----------------2---------0-------0----------------2----------------2----|
D|-----2--------------------------------------2-------2---------2----------|
A|--3---------------------2-----------------0------------------------------|
E|-----------------------------------------------------------3-------------|

E|-----------------------------0-------------------------------------------|
B|-------------------------------------------------------------------------|
G|--------------------------2-----2-----------5---5---4--------------------|
D|-----------------------3----------3-----------5---5----------------------|
A|------------------------------------0------------------------------------|
E|-------------------1------------------------3----------------------------|