Jay Ferguson - Thunder Island Text Guitar Tab

Learn song with the online tabulature player
tempo =126
 4/4
  
|-------------------|-------------------|---------------|------------------|
|-5-6-6-6-x--x--5-6-|-6--x--x--5-6-6-6--|-5-5-5-5----8--|-(8)--------------|
|-5-5-5-5-x--x--5-5-|-5--x--x--5-5-5----|-5-5-5-5--7-7--|-(7)--------------|
|-5-7-7-7-x--x--5-7-|-7--x--x--5-7-7-7--|-5-5-5-5--5-9--|-(9)--------------|
|-------------------|-------------------|---------------|------------------|
|-------------------|-------------------|---------------|------------------|
|
| 
|-------------------|-------------------|---------------|------------------|
|-------------------|-------------------|---------------|-----3-3-3--------|
|-------------------|-------------------|---------------|-/4--------4-2-0--|
|-------------------|-------------------|---------------|------------------|
|-------------------|-------------------|---------------|------------------|
|-------------------|-------------------|---------------|------------------|

Then just repeat several time