Jay-R Siaboc - Hiling Text Guitar Tab

Learn song with the online tabulature player
song:hiling

tabbed bay: abbe manuales
               magpost lang kau nang comment about my tab ha. e-add pala me sa friendster
               dnscian@yahoo.com

   G    D   B/D  C9
e--3- --2- --2 --3- 
B--3- --3- --3 --3- 
G--0- --2- --0 --0- 
D--0- --0- --x --2- 
A--2- ---- --2 --3- 
E--3- ---- --- ---- 


intro:G D B/D C9

e--7h8-7--8-5h7-5--5-7-7/10-----3-5-5/7--------|
B---------------------------7-8---------8-5----|
G----------------------------------------------|
D----------------------------------------------|
A----------------------------------------------|
E----------------------------------------------|

stanza:G D B/D C9

nag-iisang pag-ibig ang nais makamit yun ay ikaw
nag-iisang pangako na di magbabago para s iyo
D         Em           B/D      C9
saan ka man ay sana'y maalala mo
D       Em       B/D         C9
kaylaman ay asahan di magkalayo

tanging ikaw lamang ang aking iibigin
walang ibang hiling kundi ang yakap mo't halik
  
e--7h8-7--8-5h7-5--5-7-7/10-----3-5-5/7--------|
B---------------------------7-8---------8-5----|
G----------------------------------------------|
D----------------------------------------------|
A----------------------------------------------|
E----------------------------------------------|

hindi malilimutan mga araw nating kay sarap balikan
at lagi mong isipin wala nang ibang mahal kundi ikaw

D         Em            B/D      C9
malayo ka man ay sana'y maalala mo
D       Em          B/D        C9
kaylan man pangako di magkalayo

G        D          B/D            C9
tanging ikaw lamang ang aking iibigin
 G        D          B/D             C9
walang ibang hiling kundi ang yakap mo't halik

adlib:ang hirap kapain yung adlib pag acoustic quitar lang ang gamit..hehe

D         Em           B/D      C9
saan ka man ay sana'y maalala mo
D       Em       B/D         C9
kaylaman ay asahan di magkalayo

tanging ikaw lamang ang aking iibigin             x2
walang ibang hiling kundi ang yakap mo't halik