Jay-R Siaboc - May Tama Ako Text Guitar Tab

Learn song with the online tabulature player
intro:
       DM7          DM7            GM7         GM7
e|-----------5------------5--------------7-----------7-----|
B|-----------7------------7-----------7-----------7--------|
G|--------6------------6-----------7-----------7-----------|
D|-----7------------7-----------5-----------5--------------|
A|--5------------5-----------------------------------------|
E|---------------------------------------------------------|

              I
DM7                    A   
Nagtanong ka pa wala namang epekto
  F#m                     G
Labas-pasok sa tenga mo kahit anong sabihin ko
DM7                A
Wag na tayong magsayang pa ng laway
F#m                   G
Sige na mali na ako ayoko lang ng away

Refrain:
Bm                 G
Pero teka lang may sasabihin sana
       Em                      A
Kung pwede bang manahimik ka muna

Chorus:
           D                  A
Walang saysay ang sinasabi kaya’t hindi mo mawari
      Bm                 G
Kung iimik pa ba o mananahimik na lang
        D              A         Bm        A     G
At sa tuwing nagpapaliwanag pakinggan mo naman ito
             D                      A
Akala mo’y ikaw lang ang marunong tumama
  Bm             A        G  G              D   
Paminsan-minsan tama rin ako, may tama rin ako

2nd intro:

e|----------------------------10--10----------------------------17---------|
B|--------------------------------------------------------10-12------------|
G|------------------------------------9^11-9-7--9-7-9^11------------17^19--|
D|--------------------7-7--9-----------------------------------------------|
A|-------------5--7-9------------------------------------------------------|
E|--5-7-5--5-7-------------------------------------------------------------|

                II
DM7                   A
Nagtanong ka pa wala namang silbi
  Bm                         G
Wala ka kasing pakialam sa aking sinasabi
DM7                      A
Sa susunod wag ka ng magtatanong
     Bm                      G
Kung may sagot ako o wala parehas rin yun

[repeat Refrain and Chorus]
G             D
May tama rin ako ... oh.oh.oh