Jay Sean - Lights Off Text Guitar Tab

Learn song with the online tabulature player
im not sure about some of this but heres the electric guitar part to this song. please 
out my tab of the chords to this song.


intro ( not sure about the second half)

e|----------------------------------------------------------------|
b|-8-/-10~--10~--10-10-8-8-8--------------------------------------|
g|----------------------------5--7--5--0~-------------------------|
d|----------------------------------------3----3---5~-------------|
a|------------------------------------------3~--------------------|
e|----------------------------------------------------------------|


2nd half of chorus

cant see at all...

e|---------------------------------------------------|
b|---------------------------------------------------|
g|7-7-7-7-7----3-3-3-3-3-----------------5-5-5-5-5---| X 2
d|7-7-7-7-7----3-3-3-3-3----3-3-3-3-3----5-5-5-5-5---|
a|5-5-5-5-5----1-1-1-1-1----3-3-3-3-3----3-3-3-3-3---|
e|--------------------------1-1-1-1-1----------------|
  . . . .      . . . .      . . . .      . . . .


verse 2

i could've sworn that you were still my baby...


                          e|-------------------------|
                          b|-------------------------|
                          g|--7-7-5-5~---0~----------|
                          d|-------------------------|
                          a|-------------------------|
                          e|-------------------------|


chorus

cant see at all...

e|---------------------------------------------------|
b|---------------------------------------------------|
g|7-7-7-7-7----3-3-3-3-3-----------------5-5-5-5-5---| X 2
d|7-7-7-7-7----3-3-3-3-3----3-3-3-3-3----5-5-5-5-5---|
a|5-5-5-5-5----1-1-1-1-1----3-3-3-3-3----3-3-3-3-3---|
e|--------------------------1-1-1-1-1----------------|
  . . . .      . . . .      . . . .      . . . .



bridge

why don't you help me turn night to day...


e|------------------------------------------|
b|--------------6~-8~-----------------------|
g|7~-7h9-5~-5h7----------7~-7h9-5~-0~-------|
d|------------------------------------------|
a|------------------------------------------|
e|------------------------------------------|

chorus

e|---------------------------------------------------|
b|---------------------------------------------------|
g|7-7-7-7-7----3-3-3-3-3-----------------5-5-5-5-5---| X 4
d|7-7-7-7-7----3-3-3-3-3----3-3-3-3-3----5-5-5-5-5---|
a|5-5-5-5-5----1-1-1-1-1----3-3-3-3-3----3-3-3-3-3---|
e|--------------------------1-1-1-1-1----------------|
  . . . .      . . . .      . . . .      . . . .

after 1 time through and almost 2 this starts til the end of the song

e|-8---8---8---8-------|

sorry for some of the mistakes. feel free to make corrections. and in the verses it 
like there may be a small guitar part but i couldn't get it.