Jeff Buckley - Best Of Me Text Guitar Tab

Learn the song with the online tablature player
I know this isn't jeff buckley but if you're looking for the tab you probably used his name.

VERSE
REPEAT

D-----------0-----0-----------------0-----0-----------------0-----0-------|
B-----7-7-----7-----7---7-----7-7-----7-----7---7-----7-7-----7-----7---7-|
G---6-----6-----6-----6-----6-----6-----6-----6-----6-----6-----6-----6---|
D-------------------------------------------------------------------------|
A-------------------------------------------------0-----------------------|
D-0-----------------------0-----------------------------------------------|

D-----------0-----0--------|
B-----7-7-----7-----7---7--|
G---6-----6-----6-----6----|
D--------------------------|
A-0------------------------|
D--------------------------|

CHORUS
LISTEN FOR STRUM PATTERN

D-----------|
B-----------|
G-----------|
D-7-9-11-11-|
A-5-7-9--9--|
D-5-7-9--9--|

ADAM FROM CANADA