Jeff Deyo - Love Of God Text Guitar Tab

Learn song with the online tabulature player
Hey guys, this is the song called Love of God, if you have any questions contact me!!

Intro:
Guitar I
|---------------------------------|------------------------------------|
|---------------------------------|------------------------------------|
|---7-----------------------------|----7-------------------------------|
|---7---7--9----------------------|----7---7---9---5-------------------|
|--5----7--9----------------------|---5----7---9---5-------------------|
|------5--7—---3-3-3-2-3----------|-------5---7---3--------------------|

Chorus
Guitar I 0:14
|---------------------------------|------------------------------------|
|---------------------------------|------------------------------------|
|---7-----------------------------|----7-------------------------------|
|---7---7--9----5-----------------|----7---7---9---5-------------------|
|--5----7--9----5-----------------|---5----7---9---5-------------------|
|------5--7—---3------------------|-------5---7---3--------------------|

Guitar II 0:14

|---------------------------------|------------------------------------|
|---------------------------------|------------------------------------|
|----7--7--6--7--7--7--7----------|---6--7-7-7-7-6-7----12-12-12-10-12-|
|---------------------------------|------------------------------------|
|---5--5--4--5--5--5--5-----------|--4--5-5-5-5-4-5-5--10-10-10-9-10---|
|---------------------------------|------------------------------------|

Guitar I
|---------------------------------|------------------------------------|
|---------------------------------|------------------------------------|
|---7-----------------------------|----7-------------------------------|
|---7---7--9----5-----------------|----7---7---4---6--7---12-----------|
|--5----7--9----5-----------------|---5----7---4---6--7---12-----------|
|------5--7—---3------------------|-------5---2---4--5--10-------------|

Guitar II
|---------------------------------|------------------------------------|
|---------------------------------|------------------------------------|
|----7--7--6--7--7--7--7----------|---6--7-7-7-7-6-7----4-6-7-12-------|
|---------------------------------|------------------------------------|
|---5--5--4--5--5--5--5-----------|--4--5-5-5-5-4-5-5--2-4-5-10--------|
|---------------------------------|------------------------------------|

Verse I & II: Just Chords
    Bm     G	  A
Nothing in heaven or on earth
	   Bm      D         G
Ever will keep me from Your love
	      Bm       F#m    G
Love that is more than all I need
	      Bm     A     G
Love that is everything to me


            Bm    G	    A
Now I will give away this love
            Bm     D       G
Just as it gave itself for me
            Bm    F#m   G
Rivers of living water flow
	     Bm           A      G
So that the world might come to know


Chorus
Guitar I
|---------------------------------|------------------------------------|
|---------------------------------|------------------------------------|
|---7-----------------------------|----7-------------------------------|
|---7---7--9----5-----------------|----7---7---9---5-------------------|
|--5----7--9----5-----------------|---5----7---9---5-------------------|
|------5--7—---3------------------|-------5---7---3--------------------|

Guitar II

|---------------------------------|------------------------------------|
|---------------------------------|------------------------------------|
|----7--7--6--7--7--7--7----------|---6--7-7-7-7-6-7----12-12-12-10-12-|
|---------------------------------|------------------------------------|
|---5--5--4--5--5--5--5-----------|--4--5-5-5-5-4-5-5--10-10-10-9-10---|
|---------------------------------|------------------------------------|

Guitar I
|---------------------------------|------------------------------------|
|---------------------------------|------------------------------------|
|---7-----------------------------|----7-------------------------------|
|---7---7--9----5-----------------|----7---7---4---6--7---12-----------|
|--5----7--9----5-----------------|---5----7---4---6--7---12-----------|
|------5--7—---3------------------|-------5---2---4--5--10-------------|

Guitar II
|---------------------------------|------------------------------------|
|---------------------------------|------------------------------------|
|----7--7--6--7--7--7--7----------|---6--7-7-7-7-6-7----4-6-7-12-------|
|---------------------------------|------------------------------------|
|---5--5--4--5--5--5--5-----------|--4--5-5-5-5-4-5-5--2-4-5-10--------|
|---------------------------------|------------------------------------|


Breakdown:
Guitar I & II
|---------------------------------|------------------------------------|
|---------------------------------|------------------------------------|
|---------------------------------|------------------------------------|
|--------------------(X24)--------|------------------------------------|
|--2-0---2-0---2------------------|------------------------------------|
|------2-----3--------------------|------------------------------------|

Guitar I: Chords
Em     F#m     G
Loving You is amazing
Em     F#m     G
Loving You is amazing

Guitar II
|---------------------------------|------------------------------------|
|---------------------------------|------------------------------------|
|---------------------------------|------------------------------------|
|---------------------------------|------------------------------------|
|---------------------------------|------------------------------------|
|----0.-(X48)---------------------|------------------------------------|

Chorus:
Guitar I
Chords, palm mute and then regular chorus. Hope this helps! God Bless You All!!!