Jefferson Airplane - Today Text Guitar Tab

Learn the song with the online tablature player
Intro

e-----------------------------------|
x-----------------------------------|
x-------7 --------5-----------------|
x-----7--7------0---0-----------0---|
x---5---------3------------2--3---0-|
E-----------------------------------|
      D          C/D       B  C D A

Verse
Rhythm (Guitar 1)
e-----------------------------------|
x--------1--------------------------|
x----5---2--------------7-----------|
x----5---2---2---3--5---7-----------|
x----3---0---0---0--0---5-----------|
E-----------------------------------|
     C   Am         C   D

Verse
Lead (Guitar 2)
GUITAR #2:
e-15--12--------------10p8p10-------|
x------------10p8p10----------------|
x-----------------------------------|
x-----------------------------------|
x-----------------------------------|
E-----------------------------------|
  A    E     A  G  A   D  C  D

Everything else is here with the lyrics.

    ( Intro Riff )

      Verse/prechorus:

 C   Am               D                 C   Am               D
     Today            I feel like pleasing you more than before

 C   Am               D                 C   Am                     D
     Today            I know what I wanna do, but I don't know what for

Chorus

              C                F  Em  C    D    C  D
      To be living for you is all I want to do

      C               F       Em            C       D      C  D
      To be loving you it'll all be there when my dreams come true

                (same pattern though song until Ending)

      Ending

        Dm        Am     Bb      Am
        Please, please listen to me
               Dm     Am            Bb
        It's taken so long to come true
                         Bb
        And it's all for you
                 G
        All for you