Jefferson Starship - Jane Text Guitar Tab

Learn song with the online tabulature player
Wet Hot American Summer Intro

Song: Jane
Artist: Jefferson Starship
Album: Freedom at Point Zero
Written by: David Freiberg, Paul Kantner, Craig Chaquico
Transcribed by: Elliot Matson


--------------12--10---------10--------10---12---------------------------------------------------------|
---------------------8---------8-----------------------------------------------------------------------|
-9--12-----------------9---------9---------------------------------------------------------------------|
-------------------------------------------------------------------------------------------------------|
-------------------------------------------------------------------------------------------------------|
-------------------------------------------------------------------------------------------------------|

Repeat


--------------15-14-----------14-------14---15---------------------------------------------------------|
------12-----------15-12--------15-12------------------------------------------------------------------|
---12--------------------------------------------------------------------------------------------------|
-------------------------------------------------------------------------------------------------------|
-------------------------------------------------------------------------------------------------------|
-------------------------------------------------------------------------------------------------------|

Repeat


Em – G – D – A (Aggressively)

Em      Top 3 Strings
G       Top 4 Strings
D       Middle 4 Strings
A       Middle 4 Strings