Jehro - Everything Text Guitar Tab

Learn song with the online tabulature player
Plus de tablatures de Jehro sur 911 tabs.com
Jehro
Everything
  Télécharge les sonneries des tubes de Jehro sur ton mobile !
Important: Veuillez noter que la tablature ci dessous représente le fruit du travail de 
auteur et ne peut en aucun cas faire l'objet d'une quelconque utilisation commerciale.

Jerho
"everything"
tab par le gary.


e|-------4---------4---------6----------------------------------|
B|-------4---------5---------7----------------------------------|
G|-------4---------6---------8----------------------------------|
D|-------6---------6---------8----------------------------------|
A|-------6---------4---------6----------------------------------|
E|-------4---------4---------6----------------------------------|


 4 fois le première accord et ensuite 2 fois le deuxième et le troisième.
tout ça sur un rythmes reggae.

e|--------------------------------------------|---------------------------|
B|----12-12-12------11-11-11------9-9-9-------|---------------------------|
G|--------------------------------------------|-8-9-8-9-8-9-8-9-8---------|
D|--------------------------------------------|---------------------------|
A|--------------------------------------------|---------------------------|
E|--------------------------------------------|---------------------------|
                                               (variante a la fin du morceau:jouer
                                                 qu'une seule note très rapidement)

et voila l'arpège qui est jouée tout au long du morceau.

c'est tout!