Jennifer Lopez - If You Had My Love Text Guitar Tab

Learn song with the online tabulature player
E-----2-------2---------2-------2-------------------
B---3---3---3---3-----3---3---3---3-----------------
G-4-------4-------4-4-------4-------4-4-------------
D---------------------------------------------------
A---------------------------------------------------
E---------------------------------------------------

E-----3-------3-----------------5--------------------
B---5---5---5---5-------5-----7---7------------------
G---------4-------4---6---6-6------------------------
D-------------------7--------------------------------
A----------------------------------------------------
E----------------------------------------------------