Jennifer Rostock - Feuer Text Guitar Tab

Learn song with the online tabulature player
**************************
Jennifer Rostock - Feuer
**************************

-tabbed by "zero83" 
-Standard Tuning 
-You´ll find videos to my tabs on www.youtube.com/user/blacksystem83 
-PLEASE RATE AND COMMENT! =)
-I skipped the short doodle in the first second. ;)

Normal-Tuning
0:00
|-----------------------------------|x1 |------|x5
|-----------------------------------|   |------|
|-----------------------------------|   |-2--4-|
|-----------------------------------|   |------|

|-----------------------------------|x1 |------|x2
|-----------------------------------|   |------|
|---------------------------------4-|   |-2--4-|
|-2-2-2-2-2-2-2-2-4-4-4-4-4-4-4-4---|   |------|

|-----------------------------------|x1
|-----------------------------------|
|---------------------------------4-|
|-2-2-2-2-2-2-2-2-4-4-4-4-4-4-4-4---|

0:41 Hast du Feuer...
|-----------------------------------------------------------------|x2
|-----------------------------------------------------------------|
|---------------------------------4-4-4-4-4-4-4-4-----------------|
|-0-0-0-0-0-0-0-0-7-7-7-7-7-7-7-7-----------------5-5-5-5-5-5-5-5-|
 
|-----------------------------------|x1 |------|x4
|-----------------------------------|   |------|
|-----------------2-2-2-2-2-2-2-2-4-|   |-2--4-|
|-2-2-2-2-2-2-2-2-------------------|   |------|

|-----------------------------------|x1 |------|x2
|-----------------------------------|   |------|
|---------------------------------4-|   |-2--4-|
|-2-2-2-2-2-2-2-2-4-4-4-4-4-4-4-4---|   |------|

|-----------------------------------|x1
|-----------------------------------|
|---------------------------------4-|
|-2-2-2-2-2-2-2-2-4-4-4-4-4-4-4-4---|

1:28 Hast du Feuer...
|-----------------------------------------------------------------|x2
|-----------------------------------------------------------------|
|---------------------------------4-4-4-4-4-4-4-4-----------------|
|-0-0-0-0-0-0-0-0-7-7-7-7-7-7-7-7-----------------5-5-5-5-5-5-5-5-|

|-----------------------------------------------------------------|x1
|-----------------------------------------------------------------|
|-----------------2-2-2-2-2-2-2-2-2/4--2/4-------2/4--2/4-----////|
|-2-2-2-2-2-2-2-2-------------------------------------------------|

1:47 Du schürst das Knurren...
|-----------------------------------------------------------------|x1
|-----------------------------------------------------------------|
|-----------------------------------------------------------------|
|-2~--2-2-2-2-2-2-5~--5-5-5-5-5-5-0~--0-0-0-0-0-0-7~--7-7-7-7-7-7-|

|-----------------------------------------------------------------|x1
|-----------------------------------------------------------------|
|---------------------------------2~--2-2-2-2-2-2-4~--4-4-4-4-4-4-|
|-2~--2-2-2-2-2-2-5~--5-5-5-5-5-5---------------------------------|

|-----------------------------------------------------------------|x1
|-----------------------------------------------------------------|
|------------------4~-------------6-------------------------------|
|--2~-------------------------------------------------------------|

|-----------------------------------------------------------------|x3		     
|-----------------------------------------------------------------|
|-----------------4~--4-4-4-4-4-4-6~--6-6-6-6-6-6-2~--2-2-2-2-2-2-|
|-2~--2-2-2-2-2-2-------------------------------------------------|

2:24
|--------------------------------|x1
|--------------------------------|
|----------------4~--4-4-4-4-4-4-|
|4~--4-4-4-4-4-4-----------------|

|-----------------------------------------------------------------|x4
|-----------------------------------------------------------------|
|-----------------4-4-4-4-4-4-4-4-----------------4-4-4-4-4-4-4-4-|
|-2-2-2-2-2-2-2-2-----------------5-5-5-5-5-5-5-5-----------------|

2:52
|------|x1
|------|
|------|
|-2~---|

Pleas rate or comment! =)