Jennifer Rostock - Himalaya Text Guitar Tab

Learn song with the online tabulature player
*********************************
Jennifer Rostock - Himalaya
*********************************

-tabbed by "zero83" 
-Standard Tuning 
-You´ll find videos to my tabs on www.youtube.com/user/blacksystem83 
-PLEASE RATE AND COMMENT! =)
-Wie oft ihr die jeweiligen Toene spielt, muesst ihr schon selbst rausfinden! =P

INTRO
 ------------------------|x4
 ------------------------|
 -5--------------3-------|
 ------6----3------------|

PRE CHORUS
 ---------------------|--------------------|
 ---------------------|--------------------|
 ------33--------33---|-1111111133333333---|
 -33--------33--------|--------------------|

REFRAIN A
 ---------------------|--------------------|
 ---------------------|--------------------|
 ------5--------------|------5-------------|
 -1---------5----6----|-1---------5----6---|

 ---------------------|--------------------|
 ---------------------|--------------------|
 ------5----3----1----|-----------3----3---|
 -1-------------------|-3----3-------------|

REFRAIN B x2
 ---------------------|
 ---------------------|
 -----------1----3----|
 -1----3--------------|

INTRO

PRE CHORUS

REFRAIN A

REFRAIN B x4

BREAK
 ---------------------|--------------------|
 ---------------------|--------------------|
 -6---------5---------|--------1--6----6---|
 ---------------------|-3----3-------------|

 ---------------------|--------------------|
 ---------------------|--------------------|
 -3---------6---------|-1----3----5----5---|
 ---------------------|--------------------|

REFRAIN C
 ---------------------|--------------------|
 ---------------------|--------------------|
 -----(7)-------------|------7-------------|
 (3)--------7----8----|-3---------7----8---|

 ---------------------|--------------------|
 ---------------------|--------------------|
 ------7----5----3----|-----------5----5---|
 -3-------------------|-5----5-------------|

REFRAIN D x2
 ---------------------|
 ---------------------|
 -----------3----5----|
 -3----5--------------|

REFRAIN C

REFRAIN D x4