Jennifer Rostock - Irgendwo Anders Text Guitar Tab

Learn song with the online tabulature player
**************************************
Jennifer Rostock - Irgendwo anders
**************************************

-tabbed by "zero83" 
-Standard Tuning 
-You´ll find videos to my tabs on www.youtube.com/user/blacksystem83 
-PLEASE RATE AND COMMENT! =)

 VERSE A (0:28)
|-----------------------|-----------------------|
|----7--9--------7--9---|-11--11-11---7-----9---|
|-7-----------7---------|----------------7------|
|-----------------------|-----------------------|

|------------------|
|------------------|
|------------------|
|---7----5----4----|


 "Du bist irgendwo..." (0:49)
|------------------|-----------------|------------------|
|------------------|-----------------|------------------|
|-----------7------|-----------7-----|------------------|
|-2----5---------7-|-2----5--------7-|-2----5-----------|


 VERSE B (1:20)
|-----|-----------------------|-----------------------|
|-----|----7-------11-11-9--7-|----7--------11--9--7--|
|12\\-|-7-----7---------------|-7-----7---------------|
|-----|-----------------------|-----------------------|


 "Du bist irgendwo..." (1:38)


 BREAK (2:00)
|-----------------------------|-----------------------------|
|-----------------------------|-----------------------------|
|-7---7-7-7-7-7-7-7-7---//\\\\|-4---4-4---------------------|
|-----------------------------|-----------2---2-2---5---5-5-|

|-----------------------------|-----------------------------|
|-----------------------------|-----------------------------|
|-----------4---4-4-----------|-----------7-9---------------|
|-4---4-4-------------2---2-2-|-5---5-5---------------------|

|------------------|
|------------------|
|------------------|
|---7----5----4----|


 "Du bist irgendwo..." (2:28)
(wiederholen bis zum Ende, ich hab an der Stelle noch n paar kleine Bassfiguren 
aber da könnt ihr ja selber kreativ werden! =))
|------------------|
|------------------|
|-----------7------|
|-2----5---------7-|