Jenny And Johnny - My Pet Snakes Text Guitar Tab

Learn song with the online tabulature player
MY PET SNAKES - Jenny and Johnny
Tabbed By: CSC      Tuning: EADG

Riff 1
G|-------------------------------------------------|
D|-------------------------------------------------|
A|--------4------------4------5-5--5----5-5-5-4----| x2
E|--5-5-7---5----5-5-7---5----------------------7--|

Verse 1
G|-------------------------------------------|
D|-------------------------------------------|
A|------------5-5--5-------------------------|
E|--5-5--5--------------5-5--5----5-5--5-----|

G|-------------------------------------------|
D|-------------------------------------------|
A|------------5-5--5--------------------4----| x3
E|--5-5--5--------------5-5--5----5-5-7---5--|

Chorus (0:39)
G|---------------------------------------------------|
D|---------------------------------------------------|
A|--5---------7--7777h9-9--x-5---------7--7777h9-99--| x2
E|-----x-5--x-------------------x-5--x---------------|
(0:52)
G|--------------------------------------|
D|----------------------------77777777--|
A|-55555555-44444444-77777777-----------| x3
E|--------------------------------------|
(1:11)
G|--------------------------------------|
D|--------------------------------------|
A|-55555555-44444444-77777777-77777777--|
E|--------------------------------------|

Riff 1 (1:17) x2

Verse 2 (1:30) x2
G|-------------------------------------------|
D|-------------------------------------------|
A|------------5-5--5----------4--------------|
E|--5-5--5--------------5-5-7---5----5-5--5--|

G|-------------------------------------------|
D|-------------------------------------------|
A|------------5-5--5-------------------------|
E|--5-5--5--------------5-5--5----5-5--5-----|

Chorus (1:55)

Riff 2 (2:35)
G|--------------------------|
D|--------------------------|
A|--------4------------4----|
E|--5-5-7---5----5-5-7---5--|

Verse 3 (2:43) x2                         2nd time
G|----------------------------------------|---|
D|----------------------------------------|---|
A|------------5-5--5----------------------|---|
E|--5-5--5--------------5-5--5----5-5--5--|-x-|

Chorus (2:54)

Riff 2 (3:32)