Jenny Lewis - Barking At The Moon Text Guitar Tab

Learn song with the online tabulature player
-------------------------------------------------------------------------------
                             INTRO - Barking At The Moon - Jenny Lewis
-------------------------------------------------------------------------------
Tabbed by: Viking55
Email:

Tuning: Standard

e|---9-------------------------------10--9-----------------------------------|
B|------10----------------------------------10-------------------------------|
G|----------9----------9-9h11--9--9------------------------------------------|
D|-------------11--12--------------------------------------------------------|
A|---------------------------------------------------------------------------|
E|---------------------------------------------------------------------------|