Jenny Lewis - Sing A Song For Them Text Guitar Tab

Learn song with the online tabulature player
Johnathan Rice plays this on an acoustic guitar while Jenny plays keys. Hope you enjoy it!!!

-----------------------------------------------------------------------------------------|
--17-17----17-17---17----17-----15------------17-17----17-17--17-----17-------15---17----|
--------19-----------19-----19--------17------------19------------19-----19----------17--|
-----------------------------------------------------------------------------------------|
-----------------------------------------------------------------------------------------|
-----------------------------------------------------------------------------------------|

You can also play it like this if it is easier for you, but it doesn't sound as good.

-----------------------------------------------------------------------------------------|
--12-12----12-12---12----12-----10------------12-12----12-12--12-----12-------10---12----|
--------15-----------15-----15--------13------------15------------15-----15----------13--|
-----------------------------------------------------------------------------------------|
-----------------------------------------------------------------------------------------|
-----------------------------------------------------------------------------------------|