Jenny Owen Youngs - Hot In Herre Text Guitar Tab

Learn song with the online tabulature player
-------------------------------------------------------------------------------
                 HOT IN HERRE (COVER) - Jenny Owen Youngs
-------------------------------------------------------------------------------
Tabbed by: me
Email: hairypineapple@hotmail.com

Tuning: Standard

Im sure you can figure out the rhythm yourself, and theres bits where
the chord is only strummed once (verses)



Verse:
     E       G       A       C
e|--3-3-----3-3-----3-3-----3-3----------------------------------------------|
B|--3-3-----3-3-----3-3-----3-3----------------------------------------------|
G|--0-0-----0-0-----0-0-----0-0----------------------------------------------|
D|--2-2-----0-0-----2-2-----2-2----------------------------------------------|
A|--2-2-----2-2-----0-0-----3-3----------------------------------------------|
E|--0-0-----3-3--------------------------------------------------------------|

Chorus:
     C       D       E       G
e|--3-3-----3-3-----3-3-----3-3----------------------------------------------|
B|--3-3-----3-3-----3-3-----3-3----------------------------------------------|
G|--0-0-----2-2-----0-0-----0-0----------------------------------------------|
D|--2-2-----0-0-----2-2-----0-0----------------------------------------------|
A|--3-3-------------2-2-----2-2----------------------------------------------|
E|------------------0-0-----3-3----------------------------------------------|

Bridge:

e|-x-x-x-x-------x-x-x-x-----------------------------------------------------|
B|-x-x-x-x-------x-x-x-x-----------------------------------------------------|
G|-x-x-x-x-------x-x-x-x-----------------------------------------------------|
D|-x-x-x-x-------x-x-x-x-----------------------------------------------------|
A|-x-x-x-x-------x-x-x-x-----------------------------------------------------|
E|-x-x-x-x-0--3--x-x-x-x-3--2------------------------------------------------|



| /  slide up
| \  slide down
| h  hammer-on
| p  pull-off
| ~  vibrato
| +  harmonic
| x  Mute note
===============================================================================