Jens Lekman - Rocky Dennis Farewell Song To The Blind Girl Text Guitar Tab

Learn song with the online tabulature player
Jens Lekman "Rocky Dennis Farewellsong To The Blind Girl" 
Album: Rocky Dennis EP
Website: http://www.secretlycanadian.com/secretlycanadian/catalog/sc101.htm
(you can download the song for free!)

These parts make up the vast majority of the song.  Pick up the rest by ear;
it's easy, the song stays within a very limited range of notes.  Enjoy.

Note: parts are actually other instruments that I transcribed for guitar.

e-------6-6--------6-6-------
B---6-8--------6-8-----------
G-8----------8---------------
D----------------------------
A----------------------------
E----------------------------


e-----8-----------6----------
B---8---8—6~~~--6---6-4~~~~--
G----------------------------
D----------------------------
A----------------------------
E----------------------------


e--8-10-11-10--8---10-11-10-11-10-8-
B-----------------------------------
G-----------------------------------
D-----------------------------------
A-----------------------------------
E-----------------------------------