Jeremy Camp - Empty Me Text Guitar Tab

Learn song with the online tabulature player
(strum three times)  (strum twice) (strum three times)
---0--------------------0-------------0--------------------|
---0--------------------0-------------0--------------------|
---9--------------------4-------------6--------------------|
---9--------------------4-------------6--------------------|
---7--------------------2-------------4--------------------|
---0--------------------0-------------0--------------------|
(continue to below)

 (strum once)
---0--------------------------------------------------------|
---0--------------------------------------------------------|
---2--------------------------------------------------------|
---2--------------------------------------------------------|
---0--------------------------------------------------------|
---0--------------------------------------------------------|

repeat strumming patterns through the whole song