Jeremy Camp - Hear My Voice Text Guitar Tab

Learn song with the online tabulature player
-------------------------------------------------------------------------------
                             HEAR MY VOICE - Jeremy Camp
-------------------------------------------------------------------------------
Tabbed by: Ook Tong
Email: oh_ok27@yahoo.com.au

Tuning: Capo 1st

Intro: x2
e|---4--4--4---4--4--4---4--4--4---4--4--4---4--4--4---4--4--4---4--4--4---4--4--4-|
B|----5--5------5--5------5--5------5--5------5--5------5--5------5--5------5--5---|
G|--4--4--4---4--4--4--------------------------------------------------------------|
D|---------------------------------------------------------------------------------|
A|----------------------0--0--0---0--0--0-----------------------0--0--0---0--0--0--|
E|------------------------------------------0--0--0---0--0--0----------------------|

Verse/s: Similar to the Intro

Also, if you're looking for all the chords, I figured them out as well. 
Look for the CHORDS VERSION to this AWESOME song :D
 
-------------------------------------------------------------------------------