Jeremy Camp - My Desire Text Guitar Tab

Learn song with the online tabulature player
I have searched and searched for the tabs of this song..and i realized that someone had 
put this one here..

(Standard tuning) E A D G B e


INTRO
E-------------------------------|
A--0---0---0---0----0--0--------|
D-------------------------------| This goes on through the first and
G---2---2---2---2---2---2-------| and 2nd verse
B--0---0---2---2---4---4--------|
e-------------------------------|


CHORUS

E-0---0---0---0-------------------------------------|
A-0---0---0---0---0---0-----------------------------|
D-9---8---6---4---6---8-----------------------------|
G-9---9---6---4---7---9--------------       Repeat--| 2x
B-7---7---4---2---7---9-----------------------------|
e-0---0---0---0---5---7-----------------------------|


BRIDGE

E--0--0--0--0--0--0--0--0-|
A--0--0--2--2--0--0--2--0-|
D--6--1--2--2--6--1--2--4-|
G--6--2--2--2--6--2--2--4-|
B--4--2--0--0--4--2--0--2-|
e--0--0--------0--0--0--0-|

THE GO BACK TO THE CHORUS -------^


and thats it...
just to let you know i dont remember where i found these tabs..but they needed to be shared.