Jeremy Camp - Stay Text Guitar Tab

Learn song with the online tabulature player
Stay
Jeremy Camp

Here are the basic chords for Jeremy Camp's title track

Capo 2nd fret

(relative to the capo)
Intro
e-----0-------|-----0-------|-----0-------|-----0-------|
B-------0---0-|-------0---0-|-------0---0-|-------0---0-|
G-------------|-------------|-------------|-------------|
D---6-----6---|---4-----4---|---2-----2---|---4-----4---|
A-4-----------|-2-----------|-0-----------|-2-----------|
E-------------|-------------|-------------|-------------|

e-----0-------|-----0-------|---0---------|
B-------0---0-|-------0---0-|---0---------|
G-------------|-------------|---2---------|
D---6-----6---|---4-----4---|---2---------|
A-4-----------|-2-----------|---0---------|
E-------------|-------------|-------------|

Verse
e-----0-------|-----0-------|-----0-------|-----0-------|
B-------0---0-|-------0---0-|-------0---0-|-------0---0-|
G-------------|-------------|-------------|-------------|  x4
D---6-----6---|---4-----4---|---2-----2---|---4-----4---|
A-4-----------|-2-----------|-0-----------|-2-----------|
E-------------|-------------|-------------|-------------|

Bridge to Chorus

"So far from this..."
F#m (2x2200)
A2  (x02200)

Chorus
C#m (x46650)
A2  (x02200)
E   (022100)
B2  (x24400)

Bridge
"Can you feel those arms around you..."
G#m (466500)
A   (577600)