Jeremy Camp - Tonight Text Guitar Tab

Learn song with the online tabulature player
First tab ever. Sounds similar but not quite right 


|--1-1-1---0-0-0---1-1-1-1-1-1-1----|
|--3-3-3---1-1-1---1-1-1-1-3-3-3----|
|--2-2-2---0-0-0---3-3-3-3-3-3-3----|
|--0-0-0---2-2-2---3-3-3-3-3-3-3----|
|----------3-3-3---1-1-1-1-1-1-1----|
|-----------------------------------|

|--1-1-1---0-0-0---1-1-1-1-1-1-1----|
|--3-3-3---1-1-1---1-1-1-1-3-3-3----|
|--2-2-2---0-0-0---3-3-3-3-3-3-3----|
|--0-0-0---2-2-2---3-3-3-3-3-3-3----|
|----------3-3-3---1-1-1-1-1-1-1----|
|-----------------------------------|