Jeremy Camp - Walk By Faith Text Guitar Tab

Learn song with the online tabulature player
-------------------------------------------------------------------------------
                             Walk by Faith - Jeremy Camp
-------------------------------------------------------------------------------
Tabbed by:Arcticace777
Email:Arcticace@hotmail.com

Tuning: Standard (Capo 3rd Fret)
I love this song so i had to tab it out... hope you like... It might looked messed up a 
too but hope you can understand.

NOTE:(Chords, and Tabs are relevant to the capo so.... when i say 3 fret its 3rd 
fret from the capo...)

Intro
e|--------10-----------10----------10---------10---------10---------10------------------------|
B|----8-------8---8--------8---8------8---8------8---7------7---7------7---------5/7---5-4----|
G|--9---9-------9---9--------9---9------9---9------9---9------9---9------9--------------------|
D|--------------------------------------------------------------------------------------------|
A|--------------------------------------------------------------------------------------------|
E|--------------------------------------------------------------------------------------------|
    NOTE:This part of the intro you want to strum down, up, up and on the up strums only 
about the 1,2,and 3rd strings..
Listen to the song to get it to sound right..

e|--0-0-0---0-0-0--3-3-3---3-3-3-----|
B|-h1-1-1---1-1-1--3-3-3---3-3-3-----|
G|--0-0-0---0-0-0--0-0-0--h2-2-2-----|x2
D|--2-2-2---2-2-2--0-0-0---0-0-0-----|
A|--0-0-0--h3-3-3--0-0-0---0-0-0-----|
E|-----------------3-3-3---3-3-3-----|

e|--0-0-0---0-0-0--3-3-3---3-3-3---3-3-3---3-3-3---3-3-3---3-3-3---2---|
B|-h1-1-1---1-1-1--3-3-3---3-3-3---3-3-3---3-3-3---3-3-3---3-3-3---3---|
G|--0-0-0---0-0-0--0-0-0---0-0-0---0-0-0---0-0-0---0-0-0---0-0-0---0---|
D|--2-2-2---2-2-2--0-0-0---0-0-0---0-0-0---0-0-0---2-2-2---2-2-2---0---|
A|--0-0-0--h3-3-3--0-0-0---0-0-0---0-0-0---0-0-0---3-3-3---3-3-3---3---|
E|-----------------3-3-3---3-3-3---1-1-1---1-1-1-----------------------|


 VERSE 1 NOTE: Strum:down,down,up,up on each chord.. Also mess around with palm muting 
get it to sound right...


Will i believe you when you say... you hand will
e|--0--0--3--3-----|
B|--0--0--3--3-----|
G|--0--0--0--0-----|
D|--2--3--0--0-----|
A|--0--0--2--2-----|
E|--------3--3-----|

guide my every way.... will i

e|--0--0--3--3-----|
B|--0--0--3--3-----|
G|--0--0--0--0-----|
D|--2--3--0--0-----|
A|--0--0--2--2-----|
E|--------3--3-----|

receive the words you say... every
e|--0--0--3--3-----|
B|--0--0--3--3-----|
G|--0--0--0--0-----|
D|--2--3--0--0-----|
A|--0--0--2--2-----|
E|--------3--3-----|

moment of every...day
e|--3--3----------|
B|--3--3----------|
G|--0--0----------|
D|--0--2----------|
A|--0--3----------|
E|--1-------------|

CHORUS   NOTE: Strum: down,up,up on every chord

Well I..will...walk by faith
e|--3--3--3--3-----|
B|--3--3--3--3-----|
G|--0--0--0--0-----|
D|--0--0--2--2-----|
A|--2--0--3--3-----|
E|--3--1-----------|


Even when i cannot see
e|--3--2--3--3------|
B|--3--3--3--3------|
G|--0--2--0--0------|
D|--2--0--2--2------|
A|--2--0--3--3------|
E|------------------|

Well because... this broken road
e|--3--3--3--3-----|
B|--3--3--3--3-----|
G|--0--0--0--0-----|
D|--0--0--2--2-----|
A|--2--0--3--3-----|
E|--3--1-----------|

NOTE: Just a down stoke on the final chord here..
Prepares your will.. for me
e|--3--2--3--3--2-----------------------------------|
B|--3--3--3--3--3-----------------------------------|
G|--0--2--0--0--0-----------------------------------|
D|--2--0--2--2--0-----------------------------------|
A|--2--0--3--3--3-----------------------------------|
E|--------------------------------------------------|

VERSE 2
NOTE: Verse 2 is played the same as verse 1 is played.

Help me to rid my endless fears.
You've been so faithful for all my years.
With the one breath You make me new.
Your grace covers all I do

Then after you go through verse 2 go back to chorus.. After you have played the chorus 
2nd time.. here is the bridge..

NOTE: One down stroke on first two then down, up, up x4 on last one

Well I'm broken....But i still see your face..
e|--3---------------2--------------------3-------|
B|--3---------------3--------------------3-------|
G|--0---------------2--------------------0-------|
D|--2---------------0--------------------2-------|
A|--2---------------0--------------------3-------|
E|-----------------------------------------------|

Well you've spoken..Pourin' your words of grace...
e|--3---------------2-----------------------3-------|
B|--3---------------3-----------------------3-------|
G|--0---------------2-----------------------0-------|
D|--2---------------0-----------------------2-------|
A|--2---------------0-----------------------3-------|
E|--------------------------------------------------|

Back to chorus one last time then your done... hope you like..

| /  slide up
| \  slide down
| h  hammer-on
| p  pull-off
| ~  vibrato
| +  harmonic
| x  Mute note
===============================================================================