Jerrod Niemann - What Do You Want Text Guitar Tab

Learn song with the online tabulature player
-----------------------------------------------------------------------------
                  WHAT DO YOU WANT - Jerrod Nieman (Intro)
-----------------------------------------------------------------------------

Tuning: Standard

e|-----------|----------|---------|---------|
B|-1---------|-1-2-1----|---------|---------|
G|-----------|----------|---------|---------|
D|-----------|--------4-|-2---6---|-6---4---|
A|-----------|--------2-|-0---4---|-4---2---|
E|-0---------|----------|---------|---------|