Jerry Lee Lewis - Whole Lotta Shakin Going On Text Guitar Tab

Learn song with the online tabulature player
This is the guitar cover for Jerry Lee's Whole lotta shaking goin on. the tab is mostly 
chords and small finger movement with a small solos at times.

General rythm

e----------------------------------------------------------------------------|
B----------------------------------------------------------------------------|
G----------------------------------------------------------------------------|
D----------------------------------------------------------------------------|
A---7-7-9-10-9-7--7-7-9-10-9-7--12-12-14-15--14-12-7-7-9-10-9-7--14-14-16----|
E---5-5-5-5--5-5--5-5-5-5--5-5--10-10-10-10--10-10-5-5-5-5--5-5--12-12-12----|

e----------------------------------------|
B----------------------------------------|
G----------------------------------------|
D----------------------------------------|
A-14-14-16-12-12-14-12-12--7-7-9-10-9-7--|
E-12-12-12-10-10-10-10-10--5-5-5-5--5-5--|    (DO WHOLE THING TWICE)

Little Rift
e-1s-5--5s-3--3s-7--7s-5--5-5---5-5---5-5----5s-1---------------------------|
B-1s-5--5s-3--3s-7--7s-5--5-5---5-5---5-5----5s-1---------------------------|
G----------------------------7b-----7b----7b--------------------------------|
D---------------------------------------------------------------------------|
A---------------------------------------------------------------------------|
E---------------------------------------------------------------------------|

Rythm
e----------------------------------------------------------------------------|
B----------------------------------------------------------------------------|
G----------------------------------------------------------------------------|
D----------------------------------------------------------------------------|
A---7-7-9-10-9-7--7-7-9-10-9-7--12-12-14-15--14-12-7-7-9-10-9-7--14-14-16----|
E---5-5-5-5--5-5--5-5-5-5--5-5--10-10-10-10--10-10-5-5-5-5--5-5--12-12-12----|

e----------------------------------------------------------------------------|
B----------------------------------------------------------------------------|
G----------------------------------------------------------------------------|
D----------------------------------------------------------------------------|
A-14-14-16-12-12-14-12-12--7-7-9-10-9-7--------------------------------------|
E-12-12-12-10-10-10-10-10--5-5-5-5--5-5--------------------------------------|