Jessica Simpson - I Think Im In Love With You Text Guitar Tab

Learn song with the online tabulature player
jessica simpson - I think im in love with you
regular tuning
dont worry - i didnt spend too much tim eon this song though this IS 
how u play it

intro/chorus
A A/G# A A/G# F#
e-5--5---5--5---2-----------
b-5--5---5--5---2-----------
g-6--6---6--6---3-----------repeat as neccesary
d-7--7---7--7---4--0-0--0-0-
a-7--7---7--7---4-----------
E-5--4---5--4---2------2----

verse

basically the bass does what the guitar did in the intro - not much 
guitar except for the d-0-0-

bridge

e---------------\------------------\
b---------------\------------------\
g-7-9-repeat a--\last time-7-9-9-7-\
d-7-9-couple of-\play------7-9-9-7-\
a-5-7-times-----\----------5-7-7-5-\
E---------------\------------------\

i think thats all - if not ill give u the rest later - any questions or 
comments email me at zingrat7@hotmail.com
have fun