Jessica Simpson - Take My Breath Away Text Guitar Tab

Learn song with the online tabulature player
Jessica Simpson
Title: Take my breath away

Intro:
E--------------------------------------------|
B--------------------------------------------|
G--------------------------------------------|
D--------------------------------------------|
A-----0--------------------------------------|
E-0-2----7--5--0-5-4--0-4-2-0-2-4------------|


Verse 1 and 2
E---------------------------------------------|
B---------------------------------------------|
G---------------------------------------------|
D---------------------------------------------|
A-----0---------------------------------------|
E-0-2-----7-5--0-5-4-0-4-2-0-2-4--------------|
un lang!buong song na yan.
email na lang kau sa shinchan_elesi18@yahoo.com for comments