Jesus And Mary Chain - Taste The Floor Text Guitar Tab

Learn song with the online tabulature player
The Jesus and Mary Chain
Taste the Floor
Psychocandy

Riff Uno
G-----------------------------------|
D-----------------------------------|
A------------------8-8-8-8--8-8-8-8-|
E-5-5-5-5-3-3-3-3-------------------|

Riff Dos
G----------------------------------|
D----------------------------------|
A-5-5-5-5--3-3-3-3-----------------|
E------------------5-5-5-5-5-5-5-5-| X4

G------------------|
D------------------|
A------------------|
E--5-5-5-5-5-5-5-5-|