Jet Lag Gemini - Bittersweet Text Guitar Tab

Learn song with the online tabulature player
Bittersweet – Jet Lag Gemini (www.myspace.com/jlgrock)

Tabbed by John (crashedtheshow3)

It’s only the intro for now, but I think I’ll have the rest done sometime soon. 


Tuned a half step down

Intro 

e|--2~~-----2~~------------------------------------------------|
B|--3~~-----3~~---2~~------------------------------------------| 
G|--4~~-----2~~---2~~------------------------------------------|
D|--4~~-----0~~---2~~------------------------------------------|
A|--2~~-----------0~~------------------------------------------|
E|-------------------------------------------------------------|

Solo thing (guitar one)

e|--/14-10-12----10--------------------------------------------|
B|------------12----10-12----10---10h12------------------------|
G|------------------------11----11------11---------------------| 
D|-------------------------------------------------------------|  
A|-------------------------------------------------------------|
E|-------------------------------------------------------------|

Solo Thing (guitar one) Cont.                                  

e|-------------------------------------------------------------|
B|---12---14---15---14-----------------------------------------|
G|---14b^-16b^-17b^-16b^---9b8b9p7---7-9-----------------------| 
D|---------------------------------9-----9---------------------|  
A|-------------------------------------------------------------|
E|-------------------------------------------------------------|



The whole Solo thing is done twice.