Jet - Shine On Text Guitar Tab

Learn song with the online tabulature player
This was tabbed so it can be played with just an acoustic guitar.  Strumming is not 
but tabbed this way so it is easier to read.  Not sure how accurate this is since most of 
notes are played on a piano in the song.

Enjoy!

Verses:
Please don’t cry...
e|-0---0---0---0---0---0---0---0---0---0---0---0---0---0---0-----|
B|-3---3---3---3---3---3---3---3---3---3---3---3---3---3---3-----|
G|-2---2---2---2---2---2---2---2---2---2---2---2---2---2---2--22-|
D|-0---0---0---0---0---0---0---0---0---0---0---0---0---0---0--22-|
A|-----------------0---0---0---0---2---2---2---2---2---2---2--22-|
E|-----------------2---2---2---2---------------------------------|

e|-0---0---0---0---0---0---0---0---0---0---0---0---0---0---0-----|
B|-3---3---3---3---3---3---3---3---3---3---3---3---3---3---3-----|
G|-2---2---2---2---2---2---2---2---2---2---2---2---2---2---2--22-|
D|-0---0---0---0---0---0---0---0---0---0---0---0---0---0---0--22-|
A|-----------------0---0---0---0---2---2---2---2---2---2---2--22-|
E|-----------------2---2---2---2---------------------------------|
...there will always be a light

And if the moon had to run away...
e|-0-0-0-0---------3-3-3-3-0-0-0-0-|  |-00000000-33333333--------|
B|-3-3-3-3---------3-3-3-3-3-3-3-3-|  |-00000000-33333333--------|
G|-2-2-2-2-2-2-2-2---------2-2-2-2-|  |-11111111-----------------|
D|-0-0-0-0-2-2-2-2---------0-0-0-0-|X2|-22222222-----------------|
A|-2-2-2-2---------2-2-2-2---------|  |-22222222-22222222--------|
E|-----------------3-3-3-3---------|  |-00000000-33333333--------|

Chorus:

e|-0---0---0---0-------------------0---0------------3---3---3---3|
B|-3---3---3---3-------------------3---3------------3---3---3---3|
G|-2---2---2---2---2---2---2---2---2---2---2---2-----------------|
D|-0---0---0---0---2---2---2---2---0---0---2---2-----------------|
A|---------------------------------2---2------------2---2---2---2|
E|--------------------------------------------------3---3---3---3|

e|-0---0---0---0-------------------0---0------------3---3---3---3|
B|-3---3---3---3-------------------3---3------------3---3---3---3|
G|-2---2---2---2---2---2---2---2---2---2---2---2-----------------|
D|-0---0---0---0---2---2---2---2---0---0---2---2-----------------|
A|---------------------------------2---2------------2---2---2---2|
E|--------------------------------------------------3---3---3---3|

And I will shine on for everyone
e|-0-0-------3-3---0---------------------------------------------|
B|-3-3---2---3-3---3---------------------------------------------|
G|-2-2---2---------2---------------------------------------------|
D|-0-0---2---------0---------------------------------------------|
A|-----------2-2-------------------------------------------------|
E|-----------3-3-------------------------------------------------|