Jethro Tull - Hymn 43 Text Bass Tab

Learn the song with the online tablature player
Verse
G---------------------------|--------------------------|
D---------------------------|--------------------------|
A---55--33---------------3--|--55---33---------------3|
E------------55----3-5-6----|-----------55-----3-5-6---|

G------------------------------------------------------|
D------------------------------------------------------|
A--55-44-33-22-11-------------------------------------|
E-----------------------5--33--5--3-5-3-5-3--5---33-3-|

Bridge
you can mute strings like the guitar, is really funny)
G-------------------------|
D----------3-5------------|
A---555-3-----------------|
E--------5----------------|

   Bridge number 2 (then go to verse)
G--------------------|-------------------------|
D--------------------|-------------------------|
A--55--33------------|---55--33---------------|
E-----------55--------|-----------55-----------|

G------------------------------------------------------|
D------------------------------------------------------|
A--55-44-33-22-11-------------------------------------|
E-----------------------5--33--5--3-5-3-5-3--5---33-3-|

this second brigde is not played on drum, but on charleston (sorry, don't really know
the exact word... in italy we say "in levare")

have fun