Jewel - This Way Text Guitar Tab

Learn song with the online tabulature player
Author/Artist: Jewel
Title: This way
Transcribed by: P MAC
Email: Peteyspunk@hotmail.com

I learned this for a girl and wasnt sure how close i was 
but when i went to find a tab there isnt a single one
in the entire world so here it is

-6---9---7---9----------------------------------------------------------------
-7---7---7---6----------------------------------------------------------------
-6---6---8---6----------------------------------------------------------------
-x---x---9---6----------------------------------------------------------------
-x---x---x---x----------------------------------------------------------------
-x---x---x---x----------------------------------------------------------------
 Intro and Verse and Chorus                                                   

-2---4------------------------------------------------------------------------
-2---4------------------------------------------------------------------------
-4---6------------------------------------------------------------------------
-4---6------------------------------------------------------------------------
-2---4------------------------------------------------------------------------
-x---x------------------------------------------------------------------------
 Pre-Chorus