Jill Scott - Hate On Me Text Guitar Tab

Learn song with the online tabulature player
Bass Line Repeats Entire Song
G|-------------------------------------|
D|-------------------------------------|
A|------7------7-----7-----------------|
E|--8-----7------6-----5------5-6-7-8--|

G|-------------------------------------|
D|-------------------------------------|
A|--7------7-----7---------------------|
E|---7------6-----5------5-6-7-8-------|