Jim Brickman - The Gift Text Guitar Tab

Learn song with the online tabulature player
intro:
|-------------------------------------------------------------------------|
|----0-3s5s3--0-----------------------------------------------------------|
|--0-------------0---0--0-2s4s5s4s2-0--0-2-0-----0-2s4s5s4--0-2-----------|
|--------------------------------------------0-0--------------------------|
|-------------------------------------------------------------------------|
|--3-------------3---3-----------------3---3-----3------------3-----------|
verse 1 and 2
|-------------------------------------------------------------------------|
|----0-3s5s3--0-----------------------------------------------------------|
|--0-------------0---0--0-2s4s5s4s2-0--0-2-0-----0-2s4s5s4--0-2-----------|
|--------------------------------------------0-0--------------------------|
|-------------------------------------------------------------------------|
|--3-------------3---3-----------------3---3-----3------------3-----------|




verse 1
G              C       Em            
Winter snow is falling down
          C             Em
Children laughing all around
G
Lights are turning on
C                  Em
Like a fairy tale come true 
G               C       Em
Sitting by the fire we made
           C             Em
You’re the answer when I prayed
G
I would find someone
C              Em
And baby I found you

Chorus:
G              C           Am
All I want is to hold you forever
G              C             Am
All I need is you more every day
G
You saved my heart
Bm
From being broken apart
C
You gave your love away
Am
And I’m thankful every day
D
For the gift