Jimi Hendrix - Angel Acoustic Text Guitar Tab

Learn the song with the online tablature player
Angel(hotel recording) - Jimi Hendrix

note: the guitar hendrix actually uses isn't an acoustic in the recoding
like the youtube video title says and there's proof of this in the sound
and when he changes the pickup in the middle of the song immediately before
that little solo

comment with any errors or corrections

intro

for the thicker E string play every single note with your thumb (so you
shouldn't really play the a string with chords)

E|2--------------2-------2-------2-------------------------------|
B|3---3h4-3------3-------0--------------------------4------------|
G|4---4----4-----4-------1--------------------------4------------|
D|4----------4---4-------2-----------------4/6\4----4------------|
A|x--------------x-------2-------------4/6-------6--2------------|
E|2------------2-2-2-2-2-0---0------0----------------------------|

E|---------------------------------------------------------------|
B|---------------------------------------------------------------|
G|---------------------------------------------------------------|
D|------4-6/8-6-4-------4-7-4--4---------------------------------|
A|--4/6-----------6-5---------5--5/7-7---------------------------|
E|---------------------------------------------------------------|

verse

make these chords staccato

E|----2------------------x-------------------------------2r------|
B|----3---------6--------x--------------------4----------0r------|
G|----4---------6--------x--------------------4----------1r------|
D|----4---------6--------x--------------------4----------2r------|
A|----------4-----4-6---------4-6-4--------2-----2-4-------------|
E|2-----4-6------------4------------5-4-2--------------0---------|

     ending 1                                   ending 2

E|--------2r---------------|-------2r-----0r---------------------|
B|--------2r---------------|-------2r-----0r---------------------|
G|--------3r---------------|-------3r-----1r---------------------|
D|--------4r---------------|-------4r-----2r---------------------|
A|-------------------4-6---|-------------------------------------|
E|-0-2-2--------4-6------5-|----2-------2-0----------------------|

pre-chorus

legato

E|---------------------------------------------------------------|
B|-----4-------7-----7--------2------------4h7p4-4-------6h9p6-6-|
G|-----4-------7-----6--------3h4p3--------4h7p4-4-------6h9p6-6-|
D|-----4-------7---4--------4--------------4------------6--------|
A|---2-------5-----4---------------------------------------------|
E|--------0---------------2----------2/4-4--------4/6-6----------|

                                this should be the same note
E|-------7-7-7-7-7-7---------7---7---7---7---7---7---7---7-------|
B|-------7-7-7-7-7-7---------10b-10b-10b-10b-10b-10b-10b-10b-----|
G|-------8-8-8-8-8-8---------------------------------------------|
D|-------9-9-9-9-9-9---------------------------------------------|
A|---------------------------------------------------------------|
E|-7-7---7-7-7-7-7-7---------------------------------------------|

chorus

E|--0------------0-0---------------------------------------------|
B|----0----------0-0----5--5-5-5---5-5-5-5-5--5-5-5-5------------|
G|----2-1h2p1----1-1----2--2-2-2---2-2-2-2-2--2-2-2-2------------|
D|----2-2--------2-2----4--4-4-4---4-4-4-4-4--4-4-4-4------------|
A|----2----------2-2----4--4-4-4---4-4-4-4-4--4-4-4-4------------|
E|0----------0-0-0-0-0--0--0-0-0---0-0-2-0-2---------------------|
E|-----------------|--------------------------|0-0-0-0-0-0-0-0---|
B|-5-5--3-3-7-7-8-8|-9-9-9-9-9-9--------------|0-0-0-0-0-0-0-0---|
G|-5-5--4-4-7-7-8-8|-9-9-9-9-9-9--------------|1-1-1-1-1-1-1-1---|
D|-5-5--5-5-7-7-8-8|-9-9-9-9-9-9--------------|2-2-2-2-2-2-2-2---|
A|-3-3------5-5-6-6|-7-7-7-7-7-7-----7-9-7----|2-2-2-2-2-2-2-2---|
E|------3-3--------|-------------7-9-------9-7|0-0-0-0-0-0-0-0-0-|

        solo thingy

        change pickup

hold the open E for a ringing effect

E|----------------------------------------------------------------|
B|-----5--2----------------------------7-4h7p4-----4h7p4----------|
G|-----2--2h4p2-----2h4p2--------------4-4-----4---4-----4------4-|
D|-----4--------2-4--------4-2----2----6---------4--------4----4--|
A|-----4-----------------------2-4-----6---------------------6----|
E|-----0-------------------------------0--------------------------|

E|---------------------------------------------------------------|
B|---------------------------------------------------------------|
G|---------------------------------------------------------------|
D|--7-7---7-9-9---9-11r------------------------------------------|
A|--7-7---7-9-9---9-11r------------4-6-4-------------------------|
E|--5-5---5-7-7---7-9r-------------------6-----------------------|

start form the verse again except hold the notes for the verse

except play this instead of the bending part

E|-------7-7-7-7-7-7---------7--7--7--7--7--7--7--7--------------|
B|-------7-7-7-7-7-7---------10-10-10-10-10-10-10-10-------------|
G|-------8-8-8-8-8-8---------9--9--9--9--9--9--9--9--------------|
D|-------9-9-9-9-9-9---------7--7--7--7--7--7--7--7--------------|
A|---------------------------------------------------------------|
E|-7-7---7-7-7-7-7-7---------------------------------------------|

h - hammer on
p - pull off
b - bend string up
r - ring(hold notes)
/ - slide up
\ - slide down
v - vibrato (or ~)
t - right hand tap
x - play 'note' with heavy muting