Jimmy Bondoc - I Believe Text Guitar Tab

Learn the song with the online tablature player
I love "MY SASSY GIRL"!!
kaka adik!

Intro
|--0------------------------------2--7-------------------------------------|
|----0-----3-------0h1r0----------3--5---------0--0h1-3/1-------0-0h1-3/1--|
|------2-0---0---0-------0-----0--2--5-------0----------------0------------|
|--------------0-----------2h3----0--5-----0------0h2-4/2---0-----0h2-4/2--|
|--3-------2-------0-0-0-------------5-------------------------------------|
|----------------------------------------3----------------3----------------|

Verse
        G       D       C       G/B7    Emin    A7      Fdim    D       repeat
|-------3-------2-------0-------3-2-----0-------0-------5-------2-----|
|-------3-------3-------1-------3-4-----0-------2-------4-------3-----|
|-------0-------2-------0-------0-2-----0-------0-------5-------2-----|
|-------0-------0-------2-------0-4-----2-------2-------0-------0-----|
|-------2---------------3-------2-2-----2-------0---------------------|
|-------3-----------------------3-2-----0-----------------------------|

Bridge
        C       B5      C9/D    G       Emin    A5      Amin7   D
|-------0-------0-------0--2----3-------0-------0-------0-------2----|
|-------1-------3-------1--3----3-------0-------0-------1-------3----|
|-------0-------0-------0--2----0-------0-------2-------0-------2----|
|-------2-------0-------2--0----0-------2-------2-------2-------0----|
|-------3-------2-------0-------2-------2-------0-------0------------|
|-------------------------------3-------0----------------------------|

Chorus
"Starirway to Heaven" run)
        G       Amin7   B5      E       Amin    Am7+G#  Amin7   D
|-------3-------0-------0-------0-------------5-------5-------5-2-3-2-0-|
|-------3-------1-------3-------0-----------5-------5-------5---3-------|
|-------0-------0-------0-------1---------5-------5-------5-----2-------|
|-------0-------2-------0-------2-------7-------6-------5-------0-------|
|-------2-------0-------2-------2---------------------------------------|
|-------3-----------------------0---------------------------------------|

        G       Amin7   B5      B7      Emin
|-------3-------0-------0-------2-------0---------------------------|
|-------3-------1-------3-------4-------0-------5-------------------|
|-------0-------0-------0-------2-------0-------7-------6-----------|
|-------0-------2-------0-------4-------2-------5-------5-----------|
|-------2-------0-------2-------2-------2-------5-------4-----------|
|-------3-------------------------------0---------------------------|

|--0------------------------------2--7-------------------------------------|
|----0-----3-------0h1r0----------3--5---------0--0h1-3/1-------0-0h1-3/1--|
|------2-0---0---0-------0-----0--2--5-------0----------------0------------|
|--------------0-----------2h3----0--5-----0------0h2-4/2---0-----0h2-4/2--|
|--3-------2-------0-0-0-------------5-------------------------------------|
|----------------------------------------3----------------3----------------|

Bridge2
        C       B5/B7   Emin/D  C/E     Amin7   D+F#/B7 Emin    D#7     D
|-------0-------0--2-----0---2--0-0-----0-------2---2----0------3-------2-|
|-------1-------3--4-----0---3--1-0-----1-------3---4----0------3-------3-|
|-------0-------0--2-----0---2--0-1-----0-------2---2----0------3-------2-|
|-------2-------0--4-----2---0--2-2-----2-------0---4----2------5-------0-|
|-------3-------2--2-----2------3-2-----0-------0---2----2------6---------|
|------------------2-----0--------0-------------2---2----0------3---------|