Jimmy Bondoc - Out Of My League Text Guitar Tab

Learn song with the online tabulature player
yo! mabuhay ang akustik muzic!!! Intro ng out of my league ni jimmy bondoc...
astig to.. very simple, yet sobrang sarap pakinggan..
just listen to the music...and enjoy..

tabbed by:PARENG JOMAR
note: CAPO on the 5th fret

------3----2-0----------------------------|
---------------3-----------0--------------|
----0---0------------0-2-----2-0----------|
-----------0-------------0----------------|
--3---------------------------------------|
------------------3-----------------------|


------3----2-0--------2---2h3-------------|
---------------3--------3-----------------|
----0---0-----------0---------------------|
-----------0------------------------------|
--3---------------2-----------------------|
------------------------------------------|


------3----2-0----------------------------|
---------------3-----------0--------------|
----0---0------------0-2-----2-0----------|
-----------0-------------0----------------|
--3---------------------------------------|
------------------3-----------------------|


------------------------------------------|
--------0-------------0h1--0--------------|
--0-------2--0--0-------------------------|
-----0-------------0----------------------|
--3-------2-----2-------------------------|
---------------------------3--------------|