Jimmy Bondoc - The Man I Was With You Text Guitar Tab

Learn song with the online tabulature player
INTRO:

                            tap
e----3--2--------------------------------|
b---------3------------------------------|
g------------2/3-2--0-2-4/5--------3/4---|     (2x)
d----------------------------------------|
a-------------------------------0--------|
e--3-------------------------------------|

e-----------------0---2-----------|
b--------5/7--3-----3-------------|
g--2/4-5------5-------------3/4---|
d---------------------------------|
a-----------------0------0--------|
e---------------------------------|

 -whatever19-