Jimmy Eat World - Carry You Text Guitar Tab

Learn the song with the online tablature player
Artist: Jimmy Eat World
Song: Carry You
Album: Chase This Light (2007)

Intro
(This is how Jim plays it in the live "Tempe Sessions")

Intro
(repeat) | Verse: (Listen to the song to alternate right)
e|---0------------|--0--0--0---------------------------------|
B|---0------------|--0--0--0---------------------------------|
G|---0------------|--0--0--0---------------------------------|
D|---5------------|--5--0--5---------------------------------|
A|---6------------|--6--0--6-(repeat x)----------------------|
D|xxxxxxxxxxxxxxxxxxxxxxxxxxxxxxxxxxxxxxxxxxxxxxxxxxxxxxxxxxx

                     "When I know I'm all alone..."

e|----0--------------1-11-11111------------------------------|
B|----0--------------1-11-11111------------------------------|
G|----0--------------2-22-22222------------------------------|
D|----5-----0-0-00---3-33-33333------------------------------|
A|----6-----0-0-00-------------------------------------------|
D|xxxxxxxxxx0-0-00-------------------------------------------|

  "But I'll carry you..."

(The chorus will be coming soon!)