Jimmy Eat World - Disintegration Text Guitar Tab

Learn song with the online tabulature player
Song: Disintegration
Band: Jimmy Eat World
Album: Stay On My Side Tonight E.P.
Tab By: Maximilian S.

Dropped D tuning: DADGBe

There was no tab for this great song so... i tab it. 
It was very hard to tab it! 
I have NO Idea how to play the Chrous (to much single notes)... and the Bridge sounds crazy, too.
Maybe someone can help me?

- Listen to the song, to know how much a part is played...

Legend:
/ = slide
~ = let ring

####################################INTRO:

Guitar 2:
e|---|
B|---|
G|---|
D|---|
A|---|
D|-6-|<- tremelo picked

Guitar 1: (comes in at 0:14)
e|------------------------------------|
B|------------------------------------|
G|------------------------------------|
D|------------------------------------|
A|--6-6/1--3-3-3-3-3-3-3-3-3-3-3-3-3--|
D|--6-6/1--3-3-3-3-3-3-3-3-3-3-3-3-3--|


###################################VERS:

---------PART 1:---------

I've spent my last nights
strung up and pulled tight.
Holding out, sleep and grow.

Guitar 1:
e|------------------------------------|
B|------------------------------------|
G|------------------------------------|
D|------------------------------------|
A|--6-6/1--3-3-3-3-3-3-3-3-3-3-3-3-3--|
D|--6-6/1--3-3-3-3-3-3-3-3-3-3-3-3-3--|

Guitar 2: 
e|---------8-----------8-------8---|
B|---6---6---6---6---6---6---6---6-|
G|-8---8-------8---8-------8-------|
D|---------------------------------|
A|---------------------------------|
D|---------------------------------|
                                    
e|---------6-----------6-------6---|
B|---6---6---6---6---6---6---6---6-|
G|-8---8-------8---8-------8-------|
D|---------------------------------|
A|---------------------------------|
D|---------------------------------|

---------PART 2:-------------------

An answer comes without a please:
'Do what you want.'

Guitar 1:
e|-----------------------------------------------------------|
B|-----------------------------------------------------------|
G|--6-6-6-6-6-6-6-6--8-8-8-8-8-8-8-8/6~--6/8/6~--6-6/8/6~----|
D|--6-6-6-6-6-6-6-6--8-8-8-8-8-8-8-8/6~--6/8/6~--6-6/8/6~----|
A|--4-4-4-4-4-4-4-4--6-6-6-6-6-6-6-6/4~--4/6/4~--4-4/6/4~----|
D|-----------------------------------------------------------|

Guitar 2: 
e|---------8-----------8-------8---|
B|---6---6---6---6---6---6---6---6-|
G|-8---8-------8---8-------8-------|
D|---------------------------------|
A|---------------------------------|
D|---------------------------------|
                                    
e|---------6-----------6-------6---|
B|---6---6---6---6---6---6---6---6-|
G|-8---8-------8---8-------8-------|
D|---------------------------------|
A|---------------------------------|
D|---------------------------------|


###################################CHORUS:

Wonder why I'm so caught of guard when we kiss.
Rather live my life in regret then do this.
What happened to the love we both knew?
We both chased.
Hanging on a cigarette you need me,
you burn me you'll burn me.

Guitar 1 & 2:
e|------------------------------|
B|------------------------------|
G|-Sorry,-i-have-NO-idea--------|
D|------------------------------|
A|------------------------------|
D|------------------------------|

###################################PRE-VERS:

Guitar 2: 
e|---------8-----------8-------8---|
B|---6---6---6---6---6---6---6---6-|
G|-8---8-------8---8-------8-------|
D|---------------------------------|
A|---------------------------------|
D|---------------------------------|
                                    
e|---------6-----------6-------6---|
B|---6---6---6---6---6---6---6---6-|
G|-8---8-------8---8-------8-------|
D|---------------------------------|
A|---------------------------------|
D|---------------------------------|


###################################VERS:

---------PART 1:---------

Hushed with a finger
Don't say you'll never when you might,
or just another time.

Guitar 1:
e|------------------------------------|
B|------------------------------------|
G|------------------------------------|
D|------------------------------------|
A|--6-6/1--3-3-3-3-3-3-3-3-3-3-3-3-3--|
D|--6-6/1--3-3-3-3-3-3-3-3-3-3-3-3-3--|

Guitar 2: 
e|---------8-----------8-------8---|
B|---6---6---6---6---6---6---6---6-|
G|-8---8-------8---8-------8-------|
D|---------------------------------|
A|---------------------------------|
D|---------------------------------|
                                    
e|---------6-----------6-------6---|
B|---6---6---6---6---6---6---6---6-|
G|-8---8-------8---8-------8-------|
D|---------------------------------|
A|---------------------------------|
D|---------------------------------|

---------PART 2:-------------------

This poison comes instruction free.
Do what you want, but I'm drinking.

Guitar 1:
e|-------------------------------------------------------------------|
B|-------------------------------------------------------------------|
G|--6-6-6-6-6-6-6-6--8-8-8-8-8-8-8-8/6~--6/8/6~--6-6/8/6~--6-6/8/6~--|
D|--6-6-6-6-6-6-6-6--8-8-8-8-8-8-8-8/6~--6/8/6~--6-6/8/6~--6-6/8/6~--|
A|--4-4-4-4-4-4-4-4--6-6-6-6-6-6-6-6/4~--4/6/4~--4-4/6/4~--4-4/6/4~--|
D|-------------------------------------------------------------------|

Guitar 2: 
e|---------8-----------8-------8---|
B|---6---6---6---6---6---6---6---6-|
G|-8---8-------8---8-------8-------|
D|---------------------------------|
A|---------------------------------|
D|---------------------------------|
                                    
e|---------6-----------6-------6---|
B|---6---6---6---6---6---6---6---6-|
G|-8---8-------8---8-------8-------|
D|---------------------------------|
A|---------------------------------|
D|---------------------------------|


###################################CHORUS:

Wonder why I'm so caught of guard when we kiss.
Rather live my life in regret then do this.
What happened to the love we both knew?
We both chased.
Hanging on a cigarette you need me,
you burn me you'll burn me.

Guitar 1 & 2:
e|------------------------------|
B|------------------------------|
G|-Sorry,-i-have-NO-idea--------|
D|------------------------------|
A|------------------------------|
D|------------------------------|


###################################BRIDGE:

---------PART 1:---------

Guitar 1: 
e|---------8-----------8-------8---|
B|---6---6---6---6---6---6---6---6-|
G|-8---8-------8---8-------8-------|
D|---------------------------------|
A|---------------------------------|
D|---------------------------------|
                                    
e|---------6-----------6-------6---|
B|---6---6---6---6---6---6---6---6-|
G|-8---8-------8---8-------8-------|
D|---------------------------------|
A|---------------------------------|
D|---------------------------------|

Guitar 2:
e|-------------------------------------------------------------|
B|-------------------------------------------------------------|
G|-Plays-the-same-like-guitar-1-after-one-time-(I-think)-------|
D|-------------------------------------------------------------|
A|-------------------------------------------------------------|
D|-------------------------------------------------------------|

---------PART 2:---------

Lie lie better next time, stay on my side tonight oh
Lie lie better next time, stay on my side tonight oh
Lie lie better next time, stay on my side tonight oh
...

Guitar 1 & 2:                                                                      
e|--------------------------------------------------------------------------------|
B|--------------------------------------------------------------------------------|
G|-12-12-12-12-12-12-12-12--10-10-10-10--8-8-8-8--6-6-6-6-6-6-6-6-6-6-6-6-6-6-6-6-|
D|-12-12-12-12-12-12-12-12--10-10-10-10--8-8-8-8--6-6-6-6-6-6-6-6-6-6-6-6-6-6-6-6-|
A|-10-10-10-10-10-10-10-10--8--8--8--8---6-6-6-6--4-4-4-4-4-4-4-4-4-4-4-4-4-4-4-4-|
D|--------------------------------------------------------------------------------|
                                                                      
e|-----------------------------------------------------------------------------------------------|
B|-----------------------------------------------------------------------------------------------|
G|-12-12-12-12-12-12-12-12--10-10-10-10--8-8-8-8--10-10-10-10-10-10-10-10-10-10-10-10-10-10-10-10|
D|-12-12-12-12-12-12-12-12--10-10-10-10--8-8-8-8--10-10-10-10-10-10-10-10-10-10-10-10-10-10-10-10|
A|-10-10-10-10-10-10-10-10--8--8--8--8---6-6-6-6--8--8--8--8--8--8--8--8--8--8--8--8--8--8--8--8-|
D|-----------------------------------------------------------------------------------------------|


###################################LAST CHORUS:

Wonder why I'm so caught of guard when we kiss.
Rather live my life in regret then do this.
What happened to the love we both knew?
We both chased.
Hanging on a cigarette you need me,
you burn me you'll burn me.

Guitar 1:                                                                      
e|--------------------------------------------------------------------------------|
B|--------------------------------------------------------------------------------|
G|-6-6-6-6-6-6-6-6--8-8-8-8-8-8-8-8--10-10-10-10-10-10-10-10-10-10-10-10-10-10-10-|
D|-6-6-6-6-6-6-6-6--8-8-8-8-8-8-8-8--10-10-10-10-10-10-10-10-10-10-10-10-10-10-10-|
A|-4-4-4-4-4-4-4-4--6-6-6-6-6-6-6-6--8--8--8--8--8--8--8--8--8--8--8--8--8--8--8--|
D|--------------------------------------------------------------------------------|

Guitar 2: 
e|---------8-----------8-------8---|
B|---6---6---6---6---6---6---6---6-|
G|-8---8-------8---8-------8-------|
D|---------------------------------|
A|---------------------------------|
D|---------------------------------|
                                    
e|---------6-----------6-------6---|
B|---6---6---6---6---6---6---6---6-|
G|-8---8-------8---8-------8-------|
D|---------------------------------|
A|---------------------------------|
D|---------------------------------|

~End~

Greetings from Germany =D