Jimmy Eat World - Half Right Text Guitar Tab

Learn the song with the online tablature player
Song: Half Right
Band: Jimmy Eat World
Album: Stay On My Side Tonight E.P.

gtr2: intro & verses
      (play the first part twice only when you're playing the intro)

e|-----------|x2-----------------------------------------------------------|
B|-3--3--3--3|  -3-3--3-3--3-3--3-3--3-3--3-3--3-3--3-3--3-3--3-3--3-3--3-3|
G|4--4--4--4-|  --4----4----4----4----6----6----6----6----5----5----5----5-|
D|-----------|  2----2----2----2-------------------------------------------|
A|-----------|  --------------------0----0----0----0----3----3----3----3---|
E|-----------|  -----------------------------------------------------------|

Gtr1: start playing the C chord
      then  G  Em  A  C

G                                 Em
  Well you shouldn't talk to yourself
                        A
Will I picture somebody else
                      C
Someone who looks like what I look like
G                                     Em
  would you save it for one of your dreams
                              A
Got in you and ripped up the seams
                  C
That's what I'd say

That's what I'd say

G                                  Em
  He was a sucker for your double dose
                           A
Mother fucker two wires opposed
                 C
Don't you say hi

Don't you say hi

G                              Em
  With your broken sink for a face
                               A
In a head that just takes up space
                    C
He's not half right

He's not half right

C               Em    A
  It's already half past
        C
And we both left

repeat intro

G                             Em
  I was sticking up for my friend
                                A
When there's nothing much to defend
                   C
It's a lost fight

It's a lost fight

G                                   Em
  Cause when I talk to you on the phone
                            A
Well it's just like being alone
                C
It's not half right

It's not half right

there's a little mandolin (i think) part at the end..here it is

e|------------------------------------------------------|
B|------------------------------------------------------|
G|------------------------------------------------------|
D|------------------------------------------------------|
A|--10--12-10-9-10-7---10-12-10-9-10-7--9-10---7--9-10--|
E|------------------------------------------------------|

during this little solo, play the same chords as before

End on G