Jimmy Eat World - Invented Text Guitar Tab

Learn the song with the online tablature player
Jimmy Eat World - Invented

Couldn't find the tabs for this one anywhere so have had a go myself.

Order:  Intro
        Verse
        Fill
        Chorus
        Fill
        Verse
        Fill
        Chorus
        Interlude
        Chorus

Intro
e|----------------|----------------|----------------|----------------|
B|-------3-----3--|----------------|----------------|-------7-----7--|
G|-------2-----2--|-------7-----7--|-------4-----4--|-------7-----7--|
D|-0-0-0-0---0-0-0|-5-5-5-5---5-5-5|-2-2-2-2---2-2-2|-5-5-5-5---5-5-5|
A|-0-0-0-0---0-0-0|-5-5-5-5---5-5-5|-2-2-2-2---2-2-2|-5-5-5-5---5-5-5|
D|-0-0-0-0---0-0-0|-5-5-5-5---5-5-5|-2-2-2-2---2-2-2|-5-5-5-5---5-5-5|

e|----------------|----------------|----------------|----------------|
B|-------3-----3--|----------------|----------------|----------------|
G|-------2-----2--|-------7-----7--|-------4-----4--|-------7-----7--|
D|-0-0-0-0---0-0-0|-5-5-5-5---5-5-5|-2-2-2-2---2-2-2|-5-5-5-5-5-5-5-5|
A|-0-0-0-0---0-0-0|-5-5-5-5---5-5-5|-2-2-2-2---2-2-2|-5-5-5-5-5-5-5-5|
D|-0-0-0-0---0-0-0|-5-5-5-5---5-5-5|-2-2-2-2---2-2-2|-5-5-5-5-5-5-5-5|

Verse
e|----------------|----------------|----------------|----------------|
B|-------3-----3--|----------------|----------------|----------------|
G|-------2-----2--|-------7-----7--|-------4-----4--|-------7-----7--|
D|-0-0-0-0-0-0-0-0|-5-5-5-5-5-5-5-5|-2-2-2-2-2-2-2-2|-5-5-5-5-5-5-5-5| x4
A|-0-0-0-0-0-0-0-0|-5-5-5-5-5-5-5-5|-2-2-2-2-2-2-2-2|-5-5-5-5-5-5-5-5|
D|-0-0-0-0-0-0-0-0|-5-5-5-5-5-5-5-5|-2-2-2-2-2-2-2-2|-5-5-5-5-5-5-5-5|
Verse 1, When I first came to see you......
Verse 2, When I first came to LA.....

Fill
e|----------------|----------------|----------------|----------------|----------------|
B|----------------|----------------|----------------|----------------|----------------|
G|----------------|-------7-----7--|----------------|-------7-----7--|-------7-----7--|
D|-9-9-9-9-7-7-7-7|-5-5-5-5---5-5-5|-9-9-9-9-7-7-7-7|-5-5-5-5---5-5-5|-5-5-5-5-5-5-5-5|
A|-9-9-9-9-7-7-7-7|-5-5-5-5---5-5-5|-9-9-9-9-7-7-7-7|-5-5-5-5---5-5-5|-5-5-5-5-5-5-5-5|
D|-9-9-9-9-7-7-7-7|-5-5-5-5---5-5-5|-9-9-9-9-7-7-7-7|-5-5-5-5---5-5-5|-5-5-5-5-5-5-5-5|
Verse 1, I can leave you hear with your people....
Verse 2, Any d*** can roll up in a suit....

Chorus
e|----------------|----------------|-------5--------|-------5--------|
B|-------3-----3--|----------------|----------------|----------------|
G|-------2-----2--|-------4-----4--|-----7----------|-----7----------|
D|-0-0-0-0-0-0-0-0|-2-2-2-2-2-2-2-2|-5-5-----5-5-5-5|-5-5-----5-5-5-5| x4
A|-0-0-0-0-0-0-0-0|-2-2-2-2-2-2-2-2|-5-5-----5-5-5-5|-5-5-----5-5-5-5|
D|-0-0-0-0-0-0-0-0|-2-2-2-2-2-2-2-2|-5-5-----5-5-5-5|-5-5-----5-5-5-5|
You're always in my head......

Interlude
build up)
e|----------------|----------------|
B|-2-2-2----------|----------------|
G|-0-0-0-0~~~~----|----------------|
D|-0-0-0-2~~~~----|----------------| x6
A|-0-0-0-3~~~~----|----------------|
D|-3-3-3-0~~~~----|----------------|
ooooooooo....

e|----------------|----------------|----------------|----------------|
B|----------------|----------------|----------------|----------------|
G|----------------|----------------|----------------|----------------|
D|-0-0-0-5-555-55-|-0-0-0-7-777-77-|-0-0-0-5-555-55-|-0-0-0-7-777-77-|
A|-0-0-0-5-555-55-|-0-0-0-7-777-77-|-0-0-0-5-555-55-|-0-0-0-7-777-77-|
D|-0-0-0-5-555-55-|-0-0-0-7-777-77-|-0-0-0-5-555-55-|-0-0-0-7-777-77-|
It's a cinematic end.......

e|----------------|----------------|----------------|----------------|
B|----------------|----------------|----------------|----------------|
G|----------------|----------------|----------------|----------------|
D|-0-0-0-5-555-55-|-0-0-0-7-777-77-|-0-0-0-5-555-55-|-7-7-7-7-7-7-7-7|
A|-0-0-0-5-555-55-|-0-0-0-7-777-77-|-0-0-0-5-555-55-|-7-7-7-7-7-7-7-7|
D|-0-0-0-5-555-55-|-0-0-0-7-777-77-|-0-0-0-5-555-55-|-7-7-7-7-7-7-7-7|

e|----------------|----------------|----------------|----------------|
B|----------------|----------------|----------------|----------------|
G|----------------|----------------|----------------|----------------|
D|-5-5-5-5-5-5-5-5|-5-5-5-5-5-5-5-5|-0~~~~~~~~~~~---|----------------|
A|-5-5-5-5-5-5-5-5|-5-5-5-5-5-5-5-5|-0~~~~~~~~~~~---|----------------|
D|-5-5-5-5-5-5-5-5|-5-5-5-5-5-5-5-5|-0~~~~~~~~~~~---|----------------|