Jimmy Eat World - Littlething Text Guitar Tab

Learn song with the online tabulature player
hey so i'm just going to highlight some of the different parts that each guitarist play, 
it doesnt have complex song structure


Into/Verse:


Lead Guitar (Jim):
X-----------5---------|
X---------3---3---3---|
X---2---2-------2-----|
X-----0---------------|
X---------------------|
X---------------------|
Rhythm Guitar (Tom):

X-------------------------|
X-------------------------|
X---2-2-2-2-2-2-2-2-2-2---|
X---0-0-0-0-0-0-0-0-0-0---|
X-------------------------|
X-------------------------|


Chorus (Both Guitars):

X--------------------------------------------|
X--------------------------------------------|
X--------------------------------------------|
X---55555555--77777777--55555555--00000000---|
X---55555555--77777777--55555555--00000000---|
X---55555555--77777777--55555555--00000000---|

Interlude (Composed from Xylophone):

X-------2-0---2-0---------2-0---------|
X---3-----------------3---------2-3---|
X-------------------------------------|
X-------------------------------------|
X-------------------------------------|
X-------------------------------------|

Verse

Chorus

Solo:

Lead Guitar (Jim)
X---10-9--------------------------------------------------------------------|
X--------12-10----10------10-----------------------------7b(8)7b(8)7b(8)7~--|
X--------------11----9--7----7-9~---7b(9)7b(9)7b(9)7~~---7b(9)7b(9)7b(9)7~--|
X---------------------------------------------------------------------------|
X---------------------------------------------------------------------------|
X---------------------------------------------------------------------------|

X--------------------------------------------------10b(12)10b(12)10b(12)10~-|
X-10---10-----10-----------------------------------xxxxxxxxxxxxxxxxxxxxxxxx-|
X---11---9--7---7-9~---11b(12)11b(12)11b(12)11~~---11b(12)11b(12)11b(12)11~-|
X---------------------------------------------------------------------------|
X---------------------------------------------------------------------------|
X---------------------------------------------------------------------------|

Rhythm Guitar (Tom)
X--------------------------------------------|
X--------------------------------------------|
X--------------------------------------------|   X2
X---99999999--77777777--55555555--00000000---|
X---99999999--77777777--55555555--00000000---|
X---99999999--77777777--55555555--00000000---|

Interlude 2

Chorus x2