Jimmy Needham - Firefly Text Guitar Tab

Learn song with the online tabulature player
Artist: Jimmy Needham
Song: Firefly
Tuning: EADGBe

Hey all, first tab for me.
You will need to listen to the song to get the rhythm down.
These tabs are just to show chords/notes. Study this.
Then watch his music video and you will get it.
Not that hard if you do it that way.
Peace.

-JRM

Intro:
e|-------------------------x---x---x------------------x----|
B|-------------------------6---6---6------------------6----|
G|-------------------------6---6---6------------------6----|  X2
D|-------------------------6---5---4------------------6----|
A|---------4--6--6/8--8----8---6---6-----6/8/6--4-----4----|
E|---4--6------------------x---x---x--------------6---x----|

Verse:
e|------x---x---x---x----------------------------|
B|------6---6---6---6----------------------------|  X2
G|------6---6---6---6----------------------------|
D|------6---5---4---6----------------------------|
A|------8---6---6---4----------------------------|
E|------x---x---x---x----------------------------|

Chorus:
e|---x---x---x-----|           e|---x---x---x---6------|
B|---6---4---6-----|  X2       B|---6---4---6---6------|
G|---6---5---6-----|           G|---6---5---6---7------|  
D|---6---6---6-----|           D|---6---6---6---6------|
A|---8---6---4-----|           A|---8---6---4---8------|
E|---x---x---x-----|           E|---x---x---x---6------|


e|---x---x---x---------x---x---x---x----------------------|
B|---6---4---6---------6---6---6---6----------------------|  
G|---6---5---6---------6---6---6---6----------------------|
D|---5---6---6---------6---5---4---6----------------------|
A|---6---6---4---------8---6---6---4-------4-6------------|
E|---x---x---x---------x---x---x---x---4-6----------------|

Verse:
e|-------x---x---x---x---------------------------|
B|-------6---6---6---6---------------------------|  X2
G|-------6---6---6---6---------------------------|
D|-------6---5---4---6---------------------------|
A|-------8---6---6---4---------------------------|
E|-------x---x---x---x---------------------------|

Chorus:
e|---x---x---x-----|           e|---x---x---x---6------|
B|---6---4---6-----|  X2       B|---6---4---6---6------|
G|---6---5---6-----|           G|---6---5---6---7------|  
D|---6---6---6-----|           D|---6---6---6---6------|
A|---8---6---4-----|           A|---8---6---4---8------|
E|---x---x---x-----|           E|---x---x---x---6------|

Made me happy to be alive.(Alive is held out to the first note in the  Bridge)

e|-x---x--
B|-6---4--
G|-6---5--
D|-5---6--
A|-6---6--
E|-x---x--

Bridge:
e|-x---x---x---x---x---x---x----------------x--x--x--------------x-|
B|-5---7---4---7---5---7---4----------------6--6--6--------------6-|
G|-4---6---5---6---4---6---5----------------6--6--6--------------6-|
D|-6---8---6---8---6---8---4----------------6--5--4--------------6-|
A|-4---6---6---6---4---6---7-----4-6-6/8-8--8--6--6--6/8/6--4----4-|
E|-x---x--(4)--x---x---x---4--4-6-----------x--x--x-----------6--x-|

Chorus:
e|---x---x---x-----|           e|---x---x---x---6------|
B|---6---4---6-----|  X2       B|---6---4---6---6------|
G|---6---5---6-----|           G|---6---5---6---7------|  
D|---6---6---6-----|           D|---6---6---6---6------|
A|---8---6---4-----|           A|---8---6---4---8------|
E|---x---x---x-----|           E|---x---x---x---6------|

          You Made me happy            To Be      Alive (hold last note)
e|---x---x---x---------x---------------x----------x---x---x----|
B|---6---4---6---------6---------------4----------6---6---6----|  
G|---6---5---6---------6---------------5----------6---6---6----|
D|---5---6---6---------5---------------6----------6---5---4----|
A|---6---6---4---------6---------------6----------8---6---6----|
E|---x---x---x---------x---------------x----------x---x---x----|