Jimmy Needham - Lost At Sea Text Guitar Tab

Learn the song with the online tablature player
Intro
2xs
-----------------------------------------------------------|
-----------------------------------------------6-----------|
---6--------6---6--------6---6-------6---6--88---8-6-------|
-8-6-----6h8--6-6-----6h8--4-6----6h8--4-6-----------8-----|
-8-4--6h8-----6-4--6h8-----4-4-6h8-----4-4-----------------|
-6------------4------------2-----------2-------------------|

Verse 1
4xs
------------------------------------|
------------------------------------|
---6------6---------6--------6------|
-8-6----6-6-------4-6------4-6------|
-8-4----6-4----- -4-4------4-4------|
-6------4---------2--------2--------|

Chorus
C#      G#         D#   C#     G#       D#
   I’m going Your way, Even though I cannot see in front of me
C#      G#         D#   C#     G#          D#
   I’m going Your way, Even though I feel lost at sea

Acoustic Guitar: 2xs
------------------------------------|
------------------------------------|
---6------6---------6--------6------|
-8-6----6-6-------4-6------4-6------|
-8-4----6-4----- -4-4------4-4------|
-6------4---------2--------2--------|

Electric Guitar:
---------------------------------------------------|
--------------------------------------------10b----|
-13b--15p13----------------------------------------|
-----------15p13/11---------------11/10------------|
-------------------13-13b-13b11h13-----13b11-------|
---------------------------------------------------|

Verse 2
------------------------------------|
------------------------------------|
---6------6---------6--------6------|
-8-6----6-6-------4-6------4-6------|
-8-4----6-4----- -4-4------4-4------|
-6------4---------2--------2--------|

Chorus
C#      G#         D#   C#     G#       D#
   I’m going Your way, Even though I cannot see in front of me
C#      G#         D#   C#     G#          D#
   I’m going Your way, Even though I feel lost at sea

---------------|
---------------|
---------------|
-8---6---5---4-|2xs
-8---6---5---4-|
-6---4---3---2-|

Bridge
4xs
---------------------+----------------------------------|
---------------------+----------------------------------|
---------------------+---6------6---------6--------6----|
-8---6---4---4--4/6--+-8-6----6-6-------4-6------4-6----|
-8---6---4---4--4/6--+-8-4----6-4----- -4-4------4-4----|
-6---4---2---2--2/4--+-6------4---------2--------2------|

Chorus
C#      G#         D#   C#     G#       D#
   I’m going Your way, Even though I cannot see in front of me
C#      G#         D#   C#     G#          D#
   I’m going Your way, Even though I feel lost at sea

Instrumental
C#   G#    D#

Chorus
D#       A#        E#   D#    A#       E#
   I’m going Your way, Even though I cannot see in front of me
D#       A#        E#   D#    A#           E#
   I’m going Your way, Even though I feel lost at sea

Outro
4xs
------------------------------------------------|
------------------------------------------------|
------------------------------------------------|
-----8-----------8--------8------------8-10--12-|
--10-8-------8h10---10--8-8-------8h10-------12-|
--10-6--8h10------------8-6--8h10------------10-|
--8---------------------6-----------------------|